  0
SECTION
  2
HEADER
  9
$ACADVER
  1
AC1015
  9
$ACADMAINTVER
 70
     6
  9
$DWGCODEPAGE
  3
ASCII
  9
$INSBASE
 10
0.0
 20
0.0
 30
0.0
  9
$EXTMIN
 10
1.000000000000000E+20
 20
1.000000000000000E+20
 30
1.000000000000000E+20
  9
$EXTMAX
 10
-1.000000000000000E+20
 20
-1.000000000000000E+20
 30
-1.000000000000000E+20
  9
$LIMMIN
 10
0.0
 20
0.0
  9
$LIMMAX
 10
12.0
 20
9.0
  9
$ORTHOMODE
 70
     0
  9
$REGENMODE
 70
     1
  9
$FILLMODE
 70
     1
  9
$QTEXTMODE
 70
     0
  9
$MIRRTEXT
 70
     1
  9
$LTSCALE
 40
1.0
  9
$ATTMODE
 70
     1
  9
$TEXTSIZE
 40
0.2
  9
$TRACEWID
 40
0.05
  9
$TEXTSTYLE
  7
Standard
  9
$CLAYER
  8
0
  9
$CELTYPE
  6
ByLayer
  9
$CECOLOR
 62
   256
  9
$CELTSCALE
 40
1.0
  9
$DISPSILH
 70
     0
  9
$DIMSCALE
 40
1.0
  9
$DIMASZ
 40
0.18
  9
$DIMEXO
 40
0.0625
  9
$DIMDLI
 40
0.38
  9
$DIMRND
 40
0.0
  9
$DIMDLE
 40
0.0
  9
$DIMEXE
 40
0.18
  9
$DIMTP
 40
0.0
  9
$DIMTM
 40
0.0
  9
$DIMTXT
 40
0.18
  9
$DIMCEN
 40
0.09
  9
$DIMTSZ
 40
0.0
  9
$DIMTOL
 70
     0
  9
$DIMLIM
 70
     0
  9
$DIMTIH
 70
     1
  9
$DIMTOH
 70
     1
  9
$DIMSE1
 70
     0
  9
$DIMSE2
 70
     0
  9
$DIMTAD
 70
     0
  9
$DIMZIN
 70
     0
  9
$DIMBLK
  1

  9
$DIMASO
 70
     1
  9
$DIMSHO
 70
     1
  9
$DIMPOST
  1

  9
$DIMAPOST
  1

  9
$DIMALT
 70
     0
  9
$DIMALTD
 70
     2
  9
$DIMALTF
 40
25.4
  9
$DIMLFAC
 40
1.0
  9
$DIMTOFL
 70
     0
  9
$DIMTVP
 40
0.0
  9
$DIMTIX
 70
     0
  9
$DIMSOXD
 70
     0
  9
$DIMSAH
 70
     0
  9
$DIMBLK1
  1

  9
$DIMBLK2
  1

  9
$DIMSTYLE
  2
Standard
  9
$DIMCLRD
 70
     0
  9
$DIMCLRE
 70
     0
  9
$DIMCLRT
 70
     0
  9
$DIMTFAC
 40
1.0
  9
$DIMGAP
 40
0.09
  9
$DIMJUST
 70
     0
  9
$DIMSD1
 70
     0
  9
$DIMSD2
 70
     0
  9
$DIMTOLJ
 70
     1
  9
$DIMTZIN
 70
     0
  9
$DIMALTZ
 70
     0
  9
$DIMALTTZ
 70
     0
  9
$DIMUPT
 70
     0
  9
$DIMDEC
 70
     4
  9
$DIMTDEC
 70
     4
  9
$DIMALTU
 70
     2
  9
$DIMALTTD
 70
     2
  9
$DIMTXSTY
  7
Standard
  9
$DIMAUNIT
 70
     0
  9
$DIMADEC
 70
     0
  9
$DIMALTRND
 40
0.0
  9
$DIMAZIN
 70
     0
  9
$DIMDSEP
 70
    46
  9
$DIMATFIT
 70
     3
  9
$DIMFRAC
 70
     0
  9
$DIMLDRBLK
  1

  9
$DIMLUNIT
 70
     2
  9
$DIMLWD
 70
    -2
  9
$DIMLWE
 70
    -2
  9
$DIMTMOVE
 70
     0
  9
$LUNITS
 70
     2
  9
$LUPREC
 70
     4
  9
$SKETCHINC
 40
0.1
  9
$FILLETRAD
 40
0.5
  9
$AUNITS
 70
     0
  9
$AUPREC
 70
     0
  9
$MENU
  1
.
  9
$ELEVATION
 40
0.0
  9
$PELEVATION
 40
0.0
  9
$THICKNESS
 40
0.0
  9
$LIMCHECK
 70
     0
  9
$CHAMFERA
 40
0.5
  9
$CHAMFERB
 40
0.5
  9
$CHAMFERC
 40
1.0
  9
$CHAMFERD
 40
0.0
  9
$SKPOLY
 70
     0
  9
$TDCREATE
 40
2456750.636802963
  9
$TDUCREATE
 40
2456750.553469629
  9
$TDUPDATE
 40
2456750.636802975
  9
$TDUUPDATE
 40
2456750.553469641
  9
$TDINDWG
 40
0.0000000116
  9
$TDUSRTIMER
 40
0.0000000116
  9
$USRTIMER
 70
     1
  9
$ANGBASE
 50
0.0
  9
$ANGDIR
 70
     0
  9
$PDMODE
 70
     0
  9
$PDSIZE
 40
0.0
  9
$PLINEWID
 40
0.0
  9
$SPLFRAME
 70
     0
  9
$SPLINETYPE
 70
     6
  9
$SPLINESEGS
 70
     8
  9
$HANDSEED
  5
137
  9
$SURFTAB1
 70
     6
  9
$SURFTAB2
 70
     6
  9
$SURFTYPE
 70
     6
  9
$SURFU
 70
     6
  9
$SURFV
 70
     6
  9
$UCSBASE
  2

  9
$UCSNAME
  2

  9
$UCSORG
 10
0.0
 20
0.0
 30
0.0
  9
$UCSXDIR
 10
1.0
 20
0.0
 30
0.0
  9
$UCSYDIR
 10
0.0
 20
1.0
 30
0.0
  9
$UCSORTHOREF
  2

  9
$UCSORTHOVIEW
 70
     0
  9
$UCSORGTOP
 10
0.0
 20
0.0
 30
0.0
  9
$UCSORGBOTTOM
 10
0.0
 20
0.0
 30
0.0
  9
$UCSORGLEFT
 10
0.0
 20
0.0
 30
0.0
  9
$UCSORGRIGHT
 10
0.0
 20
0.0
 30
0.0
  9
$UCSORGFRONT
 10
0.0
 20
0.0
 30
0.0
  9
$UCSORGBACK
 10
0.0
 20
0.0
 30
0.0
  9
$PUCSBASE
  2

  9
$PUCSNAME
  2

  9
$PUCSORG
 10
0.0
 20
0.0
 30
0.0
  9
$PUCSXDIR
 10
1.0
 20
0.0
 30
0.0
  9
$PUCSYDIR
 10
0.0
 20
1.0
 30
0.0
  9
$PUCSORTHOREF
  2

  9
$PUCSORTHOVIEW
 70
     0
  9
$PUCSORGTOP
 10
0.0
 20
0.0
 30
0.0
  9
$PUCSORGBOTTOM
 10
0.0
 20
0.0
 30
0.0
  9
$PUCSORGLEFT
 10
0.0
 20
0.0
 30
0.0
  9
$PUCSORGRIGHT
 10
0.0
 20
0.0
 30
0.0
  9
$PUCSORGFRONT
 10
0.0
 20
0.0
 30
0.0
  9
$PUCSORGBACK
 10
0.0
 20
0.0
 30
0.0
  9
$USERI1
 70
     0
  9
$USERI2
 70
     0
  9
$USERI3
 70
     0
  9
$USERI4
 70
     0
  9
$USERI5
 70
     0
  9
$USERR1
 40
0.0
  9
$USERR2
 40
0.0
  9
$USERR3
 40
0.0
  9
$USERR4
 40
0.0
  9
$USERR5
 40
0.0
  9
$WORLDVIEW
 70
     1
  9
$SHADEDGE
 70
     3
  9
$SHADEDIF
 70
    70
  9
$TILEMODE
 70
     1
  9
$MAXACTVP
 70
    64
  9
$PINSBASE
 10
0.0
 20
0.0
 30
0.0
  9
$PLIMCHECK
 70
     0
  9
$PEXTMIN
 10
1.000000000000000E+20
 20
1.000000000000000E+20
 30
1.000000000000000E+20
  9
$PEXTMAX
 10
-1.000000000000000E+20
 20
-1.000000000000000E+20
 30
-1.000000000000000E+20
  9
$PLIMMIN
 10
0.0
 20
0.0
  9
$PLIMMAX
 10
12.0
 20
9.0
  9
$UNITMODE
 70
     0
  9
$VISRETAIN
 70
     1
  9
$PLINEGEN
 70
     0
  9
$PSLTSCALE
 70
     1
  9
$TREEDEPTH
 70
  3020
  9
$CMLSTYLE
  2
Standard
  9
$CMLJUST
 70
     0
  9
$CMLSCALE
 40
1.0
  9
$PROXYGRAPHICS
 70
     1
  9
$MEASUREMENT
 70
     0
  9
$CELWEIGHT
370
    -1
  9
$ENDCAPS
280
     0
  9
$JOINSTYLE
280
     0
  9
$LWDISPLAY
290
     1
  9
$INSUNITS
 70
     1
  9
$HYPERLINKBASE
  1

  9
$STYLESHEET
  1

  9
$XEDIT
290
     1
  9
$CEPSNTYPE
380
     0
  9
$PSTYLEMODE
290
     1
  9
$FINGERPRINTGUID
  2
{DD939B35-D50E-42A7-B7B5-90B19CA9AE6D}
  9
$VERSIONGUID
  2
{FAEB1C32-E019-11D5-929B-00C0DF256EC4}
  9
$EXTNAMES
290
     1
  9
$PSVPSCALE
 40
0.0
  9
$OLESTARTUP
290
     0
  0
ENDSEC
  0
SECTION
  2
CLASSES
  0
CLASS
  1
ACDBDICTIONARYWDFLT
  2
AcDbDictionaryWithDefault
  3
ObjectDBX Classes
 90
        0
280
     0
281
     0
  0
CLASS
  1
VISUALSTYLE
  2
AcDbVisualStyle
  3
ObjectDBX Classes
 90
     4095
280
     0
281
     0
  0
CLASS
  1
ACDBPLACEHOLDER
  2
AcDbPlaceHolder
  3
ObjectDBX Classes
 90
        0
280
     0
281
     0
  0
CLASS
  1
LAYOUT
  2
AcDbLayout
  3
ObjectDBX Classes
 90
        0
280
     0
281
     0
  0
ENDSEC
  0
SECTION
  2
TABLES
  0
TABLE
  2
VPORT
  5
8
330
0
100
AcDbSymbolTable
 70
     1
  0
VPORT
  5
29
330
8
100
AcDbSymbolTableRecord
100
AcDbViewportTableRecord
  2
*Active
 70
     0
 10
0.0
 20
0.0
 11
1.0
 21
1.0
 12
0.0
 22
0.0
 13
0.0
 23
0.0
 14
0.5
 24
0.5
 15
0.5
 25
0.5
 16
0.0
 26
0.0
 36
1.0
 17
109.2617921584186
 27
109.0798048693543
 37
0.0
 40
235.0010149147752
 41
0.9665296711134772
 42
50.0
 43
0.0
 44
0.0
 50
0.0
 51
0.0
 71
     0
 72
   100
 73
     1
 74
     3
 75
     0
 76
     0
 77
     0
 78
     0
281
     0
 65
     1
110
0.0
120
0.0
130
0.0
111
1.0
121
0.0
131
0.0
112
0.0
122
1.0
132
0.0
 79
     0
146
0.0
  0
ENDTAB
  0
TABLE
  2
LTYPE
  5
5
330
0
100
AcDbSymbolTable
 70
     1
  0
LTYPE
  5
14
330
5
100
AcDbSymbolTableRecord
100
AcDbLinetypeTableRecord
  2
ByBlock
 70
     0
  3

 72
    65
 73
     0
 40
0.0
  0
LTYPE
  5
15
330
5
100
AcDbSymbolTableRecord
100
AcDbLinetypeTableRecord
  2
ByLayer
 70
     0
  3

 72
    65
 73
     0
 40
0.0
  0
LTYPE
  5
16
330
5
100
AcDbSymbolTableRecord
100
AcDbLinetypeTableRecord
  2
Continuous
 70
     0
  3
Solid line
 72
    65
 73
     0
 40
0.0
  0
ENDTAB
  0
TABLE
  2
LAYER
  5
2
330
0
100
AcDbSymbolTable
 70
     2
  0
LAYER
  5
10
330
2
100
AcDbSymbolTableRecord
100
AcDbLayerTableRecord
  2
0
 70
     0
 62
     7
  6
Continuous
370
    -3
390
F
  0
LAYER
  5
3B
330
2
100
AcDbSymbolTableRecord
100
AcDbLayerTableRecord
  2
Ebene 1
 70
     0
 62
     7
  6
Continuous
370
    -3
390
F
  0
ENDTAB
  0
TABLE
  2
STYLE
  5
3
330
0
100
AcDbSymbolTable
 70
     1
  0
STYLE
  5
11
330
3
100
AcDbSymbolTableRecord
100
AcDbTextStyleTableRecord
  2
Standard
 70
     0
 40
0.0
 41
1.0
 50
0.0
 71
     0
 42
0.2
  3
txt
  4

  0
ENDTAB
  0
TABLE
  2
VIEW
  5
6
330
0
100
AcDbSymbolTable
 70
     0
  0
ENDTAB
  0
TABLE
  2
UCS
  5
7
330
0
100
AcDbSymbolTable
 70
     0
  0
ENDTAB
  0
TABLE
  2
APPID
  5
9
330
0
100
AcDbSymbolTable
 70
     1
  0
APPID
  5
12
330
9
100
AcDbSymbolTableRecord
100
AcDbRegAppTableRecord
  2
ACAD
 70
     0
  0
ENDTAB
  0
TABLE
  2
DIMSTYLE
  5
A
330
0
100
AcDbSymbolTable
 70
     1
100
AcDbDimStyleTable
  0
DIMSTYLE
105
27
330
A
100
AcDbSymbolTableRecord
100
AcDbDimStyleTableRecord
  2
Standard
 70
     0
340
11
  0
ENDTAB
  0
TABLE
  2
BLOCK_RECORD
  5
1
330
0
100
AcDbSymbolTable
 70
    14
  0
BLOCK_RECORD
  5
1F
330
1
100
AcDbSymbolTableRecord
100
AcDbBlockTableRecord
  2
*Model_Space
340
22
  0
BLOCK_RECORD
  5
1B
330
1
100
AcDbSymbolTableRecord
100
AcDbBlockTableRecord
  2
*Paper_Space
340
1E
  0
BLOCK_RECORD
  5
23
330
1
100
AcDbSymbolTableRecord
100
AcDbBlockTableRecord
  2
*Paper_Space0
340
26
  0
BLOCK_RECORD
  5
B7
330
1
100
AcDbSymbolTableRecord
100
AcDbBlockTableRecord
  2
block 2
340
0
102
{BLKREFS
331
B8
102
}
  0
BLOCK_RECORD
  5
C8
330
1
100
AcDbSymbolTableRecord
100
AcDbBlockTableRecord
  2
block 3
340
0
102
{BLKREFS
331
C9
102
}
  0
BLOCK_RECORD
  5
CC
330
1
100
AcDbSymbolTableRecord
100
AcDbBlockTableRecord
  2
block 4
340
0
102
{BLKREFS
331
CD
102
}
  0
BLOCK_RECORD
  5
D0
330
1
100
AcDbSymbolTableRecord
100
AcDbBlockTableRecord
  2
block 5
340
0
102
{BLKREFS
331
D1
102
}
  0
BLOCK_RECORD
  5
DA
330
1
100
AcDbSymbolTableRecord
100
AcDbBlockTableRecord
  2
block 6
340
0
102
{BLKREFS
331
DB
102
}
  0
BLOCK_RECORD
  5
DE
330
1
100
AcDbSymbolTableRecord
100
AcDbBlockTableRecord
  2
block 7
340
0
102
{BLKREFS
331
DF
102
}
  0
BLOCK_RECORD
  5
E2
330
1
100
AcDbSymbolTableRecord
100
AcDbBlockTableRecord
  2
block 8
340
0
102
{BLKREFS
331
E3
102
}
  0
BLOCK_RECORD
  5
FF
330
1
100
AcDbSymbolTableRecord
100
AcDbBlockTableRecord
  2
block 9
340
0
102
{BLKREFS
331
100
102
}
  0
BLOCK_RECORD
  5
103
330
1
100
AcDbSymbolTableRecord
100
AcDbBlockTableRecord
  2
block 10
340
0
102
{BLKREFS
331
104
102
}
  0
BLOCK_RECORD
  5
107
330
1
100
AcDbSymbolTableRecord
100
AcDbBlockTableRecord
  2
block 11
340
0
102
{BLKREFS
331
108
102
}
  0
BLOCK_RECORD
  5
114
330
1
100
AcDbSymbolTableRecord
100
AcDbBlockTableRecord
  2
block 12
340
0
102
{BLKREFS
331
115
102
}
  0
BLOCK_RECORD
  5
118
330
1
100
AcDbSymbolTableRecord
100
AcDbBlockTableRecord
  2
block 13
340
0
102
{BLKREFS
331
119
102
}
  0
BLOCK_RECORD
  5
11C
330
1
100
AcDbSymbolTableRecord
100
AcDbBlockTableRecord
  2
block 14
340
0
102
{BLKREFS
331
11D
102
}
  0
ENDTAB
  0
ENDSEC
  0
SECTION
  2
BLOCKS
  0
BLOCK
  5
20
330
1F
100
AcDbEntity
  8
0
100
AcDbBlockBegin
  2
*Model_Space
 70
     0
 71
     0
 10
0.0
 20
0.0
 30
0.0
  3
*Model_Space
  1

  0
ENDBLK
  5
21
330
1F
100
AcDbEntity
  8
0
100
AcDbBlockEnd
  0
BLOCK
  5
1C
330
1B
100
AcDbEntity
 67
     1
  8
0
100
AcDbBlockBegin
  2
*Paper_Space
 70
     0
 71
     0
 10
0.0
 20
0.0
 30
0.0
  3
*Paper_Space
  1

  0
ENDBLK
  5
1D
330
1B
100
AcDbEntity
 67
     1
  8
0
100
AcDbBlockEnd
  0
BLOCK
  5
24
330
23
100
AcDbEntity
  8
0
100
AcDbBlockBegin
  2
*Paper_Space0
 70
     0
 71
     0
 10
0.0
 20
0.0
 30
0.0
  3
*Paper_Space0
  1

  0
ENDBLK
  5
25
330
23
100
AcDbEntity
  8
0
100
AcDbBlockEnd
  0
BLOCK
  5
B9
330
B7
100
AcDbEntity
  8
0
100
AcDbBlockBegin
  2
block 2
 70
     0
 71
     0
 10
0.0
 20
0.0
 30
0.0
  3
block 2
  1

  0
ENDBLK
  5
BA
330
B7
100
AcDbEntity
  8
0
100
AcDbBlockEnd
  0
BLOCK
  5
CA
330
C8
100
AcDbEntity
  8
0
100
AcDbBlockBegin
  2
block 3
 70
     0
 71
     0
 10
0.0
 20
0.0
 30
0.0
  3
block 3
  1

  0
INSERT
  5
CD
330
C8
100
AcDbEntity
  8
Ebene 1
100
AcDbBlockReference
  2
block 4
 10
0.0
 20
0.0
 30
0.0
  0
ENDBLK
  5
CB
330
C8
100
AcDbEntity
  8
0
100
AcDbBlockEnd
  0
BLOCK
  5
CE
330
CC
100
AcDbEntity
  8
0
100
AcDbBlockBegin
  2
block 4
 70
     0
 71
     0
 10
0.0
 20
0.0
 30
0.0
  3
block 4
  1

  0
INSERT
  5
D1
330
CC
100
AcDbEntity
  8
Ebene 1
100
AcDbBlockReference
  2
block 5
 10
0.0
 20
0.0
 30
0.0
  0
ENDBLK
  5
CF
330
CC
100
AcDbEntity
  8
0
100
AcDbBlockEnd
  0
BLOCK
  5
D2
330
D0
100
AcDbEntity
  8
0
100
AcDbBlockBegin
  2
block 5
 70
     0
 71
     0
 10
0.0
 20
0.0
 30
0.0
  3
block 5
  1

  0
SPLINE
  5
D4
330
D0
100
AcDbEntity
  8
Ebene 1
370
     0
100
AcDbSpline
210
0.0
220
0.0
230
1.0
 70
    11
 71
     3
 72
    41
 73
    37
 74
     0
 42
0.0000000001
 43
0.0000000001
 40
0.0
 40
0.0
 40
0.0
 40
0.0
 40
1.0
 40
1.0
 40
1.0
 40
2.0
 40
2.0
 40
2.0
 40
3.0
 40
3.0
 40
3.0
 40
4.0
 40
4.0
 40
4.0
 40
5.0
 40
5.0
 40
5.0
 40
6.0
 40
6.0
 40
6.0
 40
7.0
 40
7.0
 40
7.0
 40
8.0
 40
8.0
 40
8.0
 40
9.0
 40
9.0
 40
9.0
 40
10.0
 40
10.0
 40
10.0
 40
11.0
 40
11.0
 40
11.0
 40
12.0
 40
12.0
 40
12.0
 40
12.0
 10
1.020265701020354
 20
76.64481237025267
 30
0.0
 10
-0.7579215067515714
 20
76.55834041652783
 30
0.0
 10
-2.079116496929879
 20
77.60806170337875
 30
0.0
 10
-2.079116496929879
 20
79.46049076783476
 30
0.0
 10
-2.079116496929879
 20
80.99149221147293
 30
0.0
 10
-1.190109020487865
 20
82.20175505384486
 30
0.0
 10
0.4399389836917076
 20
82.20175505384486
 30
0.0
 10
1.983515034146442
 20
82.20175505384486
 30
0.0
 10
2.761418107894191
 20
81.16443611892261
 30
0.0
 10
3.440619130876338
 20
80.07785228606149
 30
0.0
 10
4.107417801929823
 20
78.9788661012717
 30
0.0
 10
4.663112070289044
 20
77.83027050876728
 30
0.0
 10
5.74969590315016
 20
77.62046405530741
 30
0.0
 10
5.74969590315016
 20
77.62046405530741
 30
0.0
 10
5.74969590315016
 20
82.11528310012002
 30
0.0
 10
5.74969590315016
 20
82.11528310012002
 30
0.0
 10
5.74969590315016
 20
82.11528310012002
 30
0.0
 10
6.67591043537816
 20
82.11528310012002
 30
0.0
 10
6.67591043537816
 20
82.11528310012002
 30
0.0
 10
6.67591043537816
 20
82.11528310012002
 30
0.0
 10
6.67591043537816
 20
76.3977988610068
 30
0.0
 10
6.67591043537816
 20
76.3977988610068
 30
0.0
 10
4.601272565533631
 20
76.57074276845648
 30
0.0
 10
3.86040429268397
 20
77.62046405530741
 30
0.0
 10
3.094903570864883
 20
78.85518709176088
 30
0.0
 10
2.181091390565545
 20
80.3369236374602
 30
0.0
 10
1.637799474134987
 20
81.09036651712643
 30
0.0
 10
0.4275366317630455
 20
81.09036651712643
 30
0.0
 10
-0.5233103494343805
 20
81.09036651712643
 30
0.0
 10
-1.153074219589777
 20
80.32486579530735
 30
0.0
 10
-1.153074219589777
 20
79.39847900819144
 30
0.0
 10
-1.153074219589777
 20
78.17615832366664
 30
0.0
 10
-0.0292833309426744
 20
77.6573266013176
 30
0.0
 10
1.020265701020354
 20
77.69453365710359
 30
0.0
 10
1.020265701020354
 20
77.69453365710359
 30
0.0
 10
1.020265701020354
 20
76.64481237025267
 30
0.0
 10
1.020265701020354
 20
76.64481237025267
 30
0.0
  0
HATCH
  5
D5
330
D0
100
AcDbEntity
  8
Ebene 1
 62
     7
100
AcDbHatch
 10
0.0
 20
0.0
 30
0.0
210
0.0
220
0.0
230
1.0
  2
SOLID
 70
     1
 71
     0
 91
        1
 92
        1
 93
        1
 72
     4
 94
        3
 73
     0
 74
     1
 95
       41
 96
       37
 40
0.0
 40
0.0
 40
0.0
 40
0.0
 40
1.0
 40
1.0
 40
1.0
 40
2.0
 40
2.0
 40
2.0
 40
3.0
 40
3.0
 40
3.0
 40
4.0
 40
4.0
 40
4.0
 40
5.0
 40
5.0
 40
5.0
 40
6.0
 40
6.0
 40
6.0
 40
7.0
 40
7.0
 40
7.0
 40
8.0
 40
8.0
 40
8.0
 40
9.0
 40
9.0
 40
9.0
 40
10.0
 40
10.0
 40
10.0
 40
11.0
 40
11.0
 40
11.0
 40
12.0
 40
12.0
 40
12.0
 40
12.0
 10
1.020265701020354
 20
76.64481237025267
 10
-0.7579215067515714
 20
76.55834041652783
 10
-2.079116496929879
 20
77.60806170337875
 10
-2.079116496929879
 20
79.46049076783476
 10
-2.079116496929879
 20
80.99149221147293
 10
-1.190109020487865
 20
82.20175505384486
 10
0.4399389836917076
 20
82.20175505384486
 10
1.983515034146442
 20
82.20175505384486
 10
2.761418107894191
 20
81.16443611892261
 10
3.440619130876338
 20
80.07785228606149
 10
4.107417801929823
 20
78.9788661012717
 10
4.663112070289044
 20
77.83027050876728
 10
5.74969590315016
 20
77.62046405530741
 10
5.74969590315016
 20
77.62046405530741
 10
5.74969590315016
 20
82.11528310012002
 10
5.74969590315016
 20
82.11528310012002
 10
5.74969590315016
 20
82.11528310012002
 10
6.67591043537816
 20
82.11528310012002
 10
6.67591043537816
 20
82.11528310012002
 10
6.67591043537816
 20
82.11528310012002
 10
6.67591043537816
 20
76.3977988610068
 10
6.67591043537816
 20
76.3977988610068
 10
4.601272565533631
 20
76.57074276845648
 10
3.86040429268397
 20
77.62046405530741
 10
3.094903570864883
 20
78.85518709176088
 10
2.181091390565545
 20
80.3369236374602
 10
1.637799474134987
 20
81.09036651712643
 10
0.4275366317630455
 20
81.09036651712643
 10
-0.5233103494343805
 20
81.09036651712643
 10
-1.153074219589777
 20
80.32486579530735
 10
-1.153074219589777
 20
79.39847900819144
 10
-1.153074219589777
 20
78.17615832366664
 10
-0.0292833309426744
 20
77.6573266013176
 10
1.020265701020354
 20
77.69453365710359
 10
1.020265701020354
 20
77.69453365710359
 10
1.020265701020354
 20
76.64481237025267
 10
1.020265701020354
 20
76.64481237025267
 97
        0
 75
     2
 76
     1
 98
        0
  0
SPLINE
  5
D6
330
D0
100
AcDbEntity
  8
Ebene 1
370
     0
100
AcDbSpline
210
0.0
220
0.0
230
1.0
 70
    11
 71
     3
 72
    26
 73
    22
 74
     0
 42
0.0000000001
 43
0.0000000001
 40
0.0
 40
0.0
 40
0.0
 40
0.0
 40
1.0
 40
1.0
 40
1.0
 40
2.0
 40
2.0
 40
2.0
 40
3.0
 40
3.0
 40
3.0
 40
4.0
 40
4.0
 40
4.0
 40
5.0
 40
5.0
 40
5.0
 40
6.0
 40
6.0
 40
6.0
 40
7.0
 40
7.0
 40
7.0
 40
7.0
 10
-1.029567464966851
 20
89.25214761551346
 30
0.0
 10
0.7239872938356489
 20
87.4861905047823
 30
0.0
 10
3.934473894480147
 20
86.05371885702183
 30
0.0
 10
6.67591043537816
 20
85.89317730150081
 30
0.0
 10
6.67591043537816
 20
85.89317730150081
 30
0.0
 10
6.67591043537816
 20
84.72012151491487
 30
0.0
 10
6.67591043537816
 20
84.72012151491487
 30
0.0
 10
3.712265089091618
 20
84.91752561644607
 30
0.0
 10
1.007863349091692
 20
86.33759491227788
 30
0.0
 10
-0.9430955112420122
 20
88.17762162480521
 30
0.0
 10
-0.9430955112420122
 20
88.17762162480521
 30
0.0
 10
-0.9430955112420122
 20
83.5839282743391
 30
0.0
 10
-0.9430955112420122
 20
83.5839282743391
 30
0.0
 10
-0.9430955112420122
 20
83.5839282743391
 30
0.0
 10
-1.930977293337526
 20
83.5839282743391
 30
0.0
 10
-1.930977293337526
 20
83.5839282743391
 30
0.0
 10
-1.930977293337526
 20
83.5839282743391
 30
0.0
 10
-1.930977293337526
 20
89.25214761551346
 30
0.0
 10
-1.930977293337526
 20
89.25214761551346
 30
0.0
 10
-1.930977293337526
 20
89.25214761551346
 30
0.0
 10
-1.029567464966851
 20
89.25214761551346
 30
0.0
 10
-1.029567464966851
 20
89.25214761551346
 30
0.0
  0
HATCH
  5
D7
330
D0
100
AcDbEntity
  8
Ebene 1
 62
     7
100
AcDbHatch
 10
0.0
 20
0.0
 30
0.0
210
0.0
220
0.0
230
1.0
  2
SOLID
 70
     1
 71
     0
 91
        1
 92
        1
 93
        1
 72
     4
 94
        3
 73
     0
 74
     1
 95
       26
 96
       22
 40
0.0
 40
0.0
 40
0.0
 40
0.0
 40
1.0
 40
1.0
 40
1.0
 40
2.0
 40
2.0
 40
2.0
 40
3.0
 40
3.0
 40
3.0
 40
4.0
 40
4.0
 40
4.0
 40
5.0
 40
5.0
 40
5.0
 40
6.0
 40
6.0
 40
6.0
 40
7.0
 40
7.0
 40
7.0
 40
7.0
 10
-1.029567464966851
 20
89.25214761551346
 10
0.7239872938356489
 20
87.4861905047823
 10
3.934473894480147
 20
86.05371885702183
 10
6.67591043537816
 20
85.89317730150081
 10
6.67591043537816
 20
85.89317730150081
 10
6.67591043537816
 20
84.72012151491487
 10
6.67591043537816
 20
84.72012151491487
 10
3.712265089091618
 20
84.91752561644607
 10
1.007863349091692
 20
86.33759491227788
 10
-0.9430955112420122
 20
88.17762162480521
 10
-0.9430955112420122
 20
88.17762162480521
 10
-0.9430955112420122
 20
83.5839282743391
 10
-0.9430955112420122
 20
83.5839282743391
 10
-0.9430955112420122
 20
83.5839282743391
 10
-1.930977293337526
 20
83.5839282743391
 10
-1.930977293337526
 20
83.5839282743391
 10
-1.930977293337526
 20
83.5839282743391
 10
-1.930977293337526
 20
89.25214761551346
 10
-1.930977293337526
 20
89.25214761551346
 10
-1.930977293337526
 20
89.25214761551346
 10
-1.029567464966851
 20
89.25214761551346
 10
-1.029567464966851
 20
89.25214761551346
 97
        0
 75
     2
 76
     1
 98
        0
  0
SPLINE
  5
D8
330
D0
100
AcDbEntity
  8
Ebene 1
370
     0
100
AcDbSpline
210
0.0
220
0.0
230
1.0
 70
    11
 71
     3
 72
    53
 73
    49
 74
     0
 42
0.0000000001
 43
0.0000000001
 40
0.0
 40
0.0
 40
0.0
 40
0.0
 40
1.0
 40
1.0
 40
1.0
 40
2.0
 40
2.0
 40
2.0
 40
3.0
 40
3.0
 40
3.0
 40
4.0
 40
4.0
 40
4.0
 40
5.0
 40
5.0
 40
5.0
 40
6.0
 40
6.0
 40
6.0
 40
7.0
 40
7.0
 40
7.0
 40
8.0
 40
8.0
 40
8.0
 40
9.0
 40
9.0
 40
9.0
 40
10.0
 40
10.0
 40
10.0
 40
11.0
 40
11.0
 40
11.0
 40
12.0
 40
12.0
 40
12.0
 40
13.0
 40
13.0
 40
13.0
 40
14.0
 40
14.0
 40
14.0
 40
15.0
 40
15.0
 40
15.0
 40
16.0
 40
16.0
 40
16.0
 40
16.0
 10
-1.004935015997425
 20
95.63556925124068
 30
0.0
 10
-1.004935015997425
 20
95.63556925124068
 30
0.0
 10
-1.004935015997425
 20
92.10365502977835
 30
0.0
 10
-1.004935015997425
 20
92.10365502977835
 30
0.0
 10
-1.004935015997425
 20
92.10365502977835
 30
0.0
 10
1.51429271951206
 20
91.63443271514397
 30
0.0
 10
1.51429271951206
 20
91.63443271514397
 30
0.0
 10
1.51429271951206
 20
91.63443271514397
 30
0.0
 10
1.538925168481486
 20
91.6592374190013
 30
0.0
 10
1.538925168481486
 20
91.6592374190013
 30
0.0
 10
1.106737654745192
 20
92.04198777991084
 30
0.0
 10
0.9091612983260896
 20
92.69655635392355
 30
0.0
 10
0.9091612983260896
 20
93.28911316829297
 30
0.0
 10
0.9091612983260896
 20
94.84526382556426
 30
0.0
 10
1.909445432350266
 20
96.11719391780372
 30
0.0
 10
3.90984144551072
 20
96.11719391780372
 30
0.0
 10
5.391577991210043
 20
96.11719391780372
 30
0.0
 10
6.824049638970513
 20
95.09227733481012
 30
0.0
 10
6.824049638970513
 20
93.05450201097578
 30
0.0
 10
6.824049638970513
 20
91.53555840949048
 30
0.0
 10
5.898007361630411
 20
90.300835373037
 30
0.0
 10
4.317396510277588
 20
90.2639728270268
 30
0.0
 10
4.317396510277588
 20
90.2639728270268
 30
0.0
 10
4.317396510277588
 20
91.31334960410194
 30
0.0
 10
4.317396510277588
 20
91.31334960410194
 30
0.0
 10
5.218806338648264
 20
91.37536136374526
 30
0.0
 10
5.898007361630411
 20
92.10365502977835
 30
0.0
 10
5.898007361630411
 20
93.15337631662928
 30
0.0
 10
5.898007361630411
 20
94.15348819576556
 30
0.0
 10
5.218806338648264
 20
95.00580538108528
 30
0.0
 10
3.823369491785882
 20
95.00580538108528
 30
0.0
 10
2.662716057128589
 20
95.00580538108528
 30
0.0
 10
1.835203575666192
 20
94.2030976034802
 30
0.0
 10
1.835203575666192
 20
93.03004181689425
 30
0.0
 10
1.835203575666192
 20
92.36307089095287
 30
0.0
 10
2.168689038636883
 20
91.80737662259365
 30
0.0
 10
2.662716057128589
 20
91.39982155782678
 30
0.0
 10
2.662716057128589
 20
91.39982155782678
 30
0.0
 10
2.613278904301839
 20
90.49858398434401
 30
0.0
 10
2.613278904301839
 20
90.49858398434401
 30
0.0
 10
2.613278904301839
 20
90.49858398434401
 30
0.0
 10
-1.930977293337526
 20
91.31334960410194
 30
0.0
 10
-1.930977293337526
 20
91.31334960410194
 30
0.0
 10
-1.930977293337526
 20
91.31334960410194
 30
0.0
 10
-1.930977293337526
 20
95.63556925124068
 30
0.0
 10
-1.930977293337526
 20
95.63556925124068
 30
0.0
 10
-1.930977293337526
 20
95.63556925124068
 30
0.0
 10
-1.004935015997425
 20
95.63556925124068
 30
0.0
 10
-1.004935015997425
 20
95.63556925124068
 30
0.0
  0
HATCH
  5
D9
330
D0
100
AcDbEntity
  8
Ebene 1
 62
     7
100
AcDbHatch
 10
0.0
 20
0.0
 30
0.0
210
0.0
220
0.0
230
1.0
  2
SOLID
 70
     1
 71
     0
 91
        1
 92
        1
 93
        1
 72
     4
 94
        3
 73
     0
 74
     1
 95
       53
 96
       49
 40
0.0
 40
0.0
 40
0.0
 40
0.0
 40
1.0
 40
1.0
 40
1.0
 40
2.0
 40
2.0
 40
2.0
 40
3.0
 40
3.0
 40
3.0
 40
4.0
 40
4.0
 40
4.0
 40
5.0
 40
5.0
 40
5.0
 40
6.0
 40
6.0
 40
6.0
 40
7.0
 40
7.0
 40
7.0
 40
8.0
 40
8.0
 40
8.0
 40
9.0
 40
9.0
 40
9.0
 40
10.0
 40
10.0
 40
10.0
 40
11.0
 40
11.0
 40
11.0
 40
12.0
 40
12.0
 40
12.0
 40
13.0
 40
13.0
 40
13.0
 40
14.0
 40
14.0
 40
14.0
 40
15.0
 40
15.0
 40
15.0
 40
16.0
 40
16.0
 40
16.0
 40
16.0
 10
-1.004935015997425
 20
95.63556925124068
 10
-1.004935015997425
 20
95.63556925124068
 10
-1.004935015997425
 20
92.10365502977835
 10
-1.004935015997425
 20
92.10365502977835
 10
-1.004935015997425
 20
92.10365502977835
 10
1.51429271951206
 20
91.63443271514397
 10
1.51429271951206
 20
91.63443271514397
 10
1.51429271951206
 20
91.63443271514397
 10
1.538925168481486
 20
91.6592374190013
 10
1.538925168481486
 20
91.6592374190013
 10
1.106737654745192
 20
92.04198777991084
 10
0.9091612983260896
 20
92.69655635392355
 10
0.9091612983260896
 20
93.28911316829297
 10
0.9091612983260896
 20
94.84526382556426
 10
1.909445432350266
 20
96.11719391780372
 10
3.90984144551072
 20
96.11719391780372
 10
5.391577991210043
 20
96.11719391780372
 10
6.824049638970513
 20
95.09227733481012
 10
6.824049638970513
 20
93.05450201097578
 10
6.824049638970513
 20
91.53555840949048
 10
5.898007361630411
 20
90.300835373037
 10
4.317396510277588
 20
90.2639728270268
 10
4.317396510277588
 20
90.2639728270268
 10
4.317396510277588
 20
91.31334960410194
 10
4.317396510277588
 20
91.31334960410194
 10
5.218806338648264
 20
91.37536136374526
 10
5.898007361630411
 20
92.10365502977835
 10
5.898007361630411
 20
93.15337631662928
 10
5.898007361630411
 20
94.15348819576556
 10
5.218806338648264
 20
95.00580538108528
 10
3.823369491785882
 20
95.00580538108528
 10
2.662716057128589
 20
95.00580538108528
 10
1.835203575666192
 20
94.2030976034802
 10
1.835203575666192
 20
93.03004181689425
 10
1.835203575666192
 20
92.36307089095287
 10
2.168689038636883
 20
91.80737662259365
 10
2.662716057128589
 20
91.39982155782678
 10
2.662716057128589
 20
91.39982155782678
 10
2.613278904301839
 20
90.49858398434401
 10
2.613278904301839
 20
90.49858398434401
 10
2.613278904301839
 20
90.49858398434401
 10
-1.930977293337526
 20
91.31334960410194
 10
-1.930977293337526
 20
91.31334960410194
 10
-1.930977293337526
 20
91.31334960410194
 10
-1.930977293337526
 20
95.63556925124068
 10
-1.930977293337526
 20
95.63556925124068
 10
-1.930977293337526
 20
95.63556925124068
 10
-1.004935015997425
 20
95.63556925124068
 10
-1.004935015997425
 20
95.63556925124068
 97
        0
 75
     2
 76
     1
 98
        0
  0
ENDBLK
  5
D3
330
D0
100
AcDbEntity
  8
0
100
AcDbBlockEnd
  0
BLOCK
  5
DC
330
DA
100
AcDbEntity
  8
0
100
AcDbBlockBegin
  2
block 6
 70
     0
 71
     0
 10
0.0
 20
0.0
 30
0.0
  3
block 6
  1

  0
INSERT
  5
DF
330
DA
100
AcDbEntity
  8
Ebene 1
100
AcDbBlockReference
  2
block 7
 10
0.0
 20
0.0
 30
0.0
  0
ENDBLK
  5
DD
330
DA
100
AcDbEntity
  8
0
100
AcDbBlockEnd
  0
BLOCK
  5
E0
330
DE
100
AcDbEntity
  8
0
100
AcDbBlockBegin
  2
block 7
 70
     0
 71
     0
 10
0.0
 20
0.0
 30
0.0
  3
block 7
  1

  0
INSERT
  5
E3
330
DE
100
AcDbEntity
  8
Ebene 1
100
AcDbBlockReference
  2
block 8
 10
0.0
 20
0.0
 30
0.0
  0
ENDBLK
  5
E1
330
DE
100
AcDbEntity
  8
0
100
AcDbBlockEnd
  0
BLOCK
  5
E4
330
E2
100
AcDbEntity
  8
0
100
AcDbBlockBegin
  2
block 8
 70
     0
 71
     0
 10
0.0
 20
0.0
 30
0.0
  3
block 8
  1

  0
POLYLINE
  5
E6
330
E2
100
AcDbEntity
  8
Ebene 1
370
     0
100
AcDb2dPolyline
 66
     1
 10
0.0
 20
0.0
 30
0.0
  0
VERTEX
  5
E7
330
E6
100
AcDbEntity
  8
Ebene 1
370
     0
100
AcDbVertex
100
AcDb2dVertex
 10
149.1789340957054
 20
141.7084118624534
 30
0.0
  0
VERTEX
  5
E8
330
E6
100
AcDbEntity
  8
Ebene 1
370
     0
100
AcDbVertex
100
AcDb2dVertex
 10
149.1789340957054
 20
142.893870000968
 30
0.0
  0
VERTEX
  5
E9
330
E6
100
AcDbEntity
  8
Ebene 1
370
     0
100
AcDbVertex
100
AcDb2dVertex
 10
150.1049763730455
 20
142.893870000968
 30
0.0
  0
VERTEX
  5
EA
330
E6
100
AcDbEntity
  8
Ebene 1
370
     0
100
AcDbVertex
100
AcDb2dVertex
 10
150.1049763730455
 20
141.7084118624534
 30
0.0
  0
VERTEX
  5
EB
330
E6
100
AcDbEntity
  8
Ebene 1
370
     0
100
AcDbVertex
100
AcDb2dVertex
 10
152.1548095390328
 20
141.7084118624534
 30
0.0
  0
VERTEX
  5
EC
330
E6
100
AcDbEntity
  8
Ebene 1
370
     0
100
AcDbVertex
100
AcDb2dVertex
 10
152.1548095390328
 20
140.7205300803579
 30
0.0
  0
VERTEX
  5
ED
330
E6
100
AcDbEntity
  8
Ebene 1
370
     0
100
AcDbVertex
100
AcDb2dVertex
 10
150.1049763730455
 20
140.7205300803579
 30
0.0
  0
VERTEX
  5
EE
330
E6
100
AcDbEntity
  8
Ebene 1
370
     0
100
AcDbVertex
100
AcDb2dVertex
 10
150.1049763730455
 20
136.880279609558
 30
0.0
  0
VERTEX
  5
EF
330
E6
100
AcDbEntity
  8
Ebene 1
370
     0
100
AcDbVertex
100
AcDb2dVertex
 10
149.0924621419806
 20
136.880279609558
 30
0.0
  0
VERTEX
  5
F0
330
E6
100
AcDbEntity
  8
Ebene 1
370
     0
100
AcDbVertex
100
AcDb2dVertex
 10
143.3997826067247
 20
140.8686692839503
 30
0.0
  0
VERTEX
  5
F1
330
E6
100
AcDbEntity
  8
Ebene 1
370
     0
100
AcDbVertex
100
AcDb2dVertex
 10
143.3997826067247
 20
141.7084118624534
 30
0.0
  0
VERTEX
  5
F2
330
E6
100
AcDbEntity
  8
Ebene 1
370
     0
100
AcDbVertex
100
AcDb2dVertex
 10
149.1789340957054
 20
141.7084118624534
 30
0.0
  0
SEQEND
  5
F3
330
E6
100
AcDbEntity
  8
Ebene 1
370
     0
  0
POLYLINE
  5
F4
330
E2
100
AcDbEntity
  8
Ebene 1
370
     0
100
AcDb2dPolyline
 66
     1
 10
0.0
 20
0.0
 30
0.0
  0
VERTEX
  5
F5
330
F4
100
AcDbEntity
  8
Ebene 1
370
     0
100
AcDbVertex
100
AcDb2dVertex
 10
149.1789340957054
 20
140.7205300803579
 30
0.0
  0
VERTEX
  5
F6
330
F4
100
AcDbEntity
  8
Ebene 1
370
     0
100
AcDbVertex
100
AcDb2dVertex
 10
144.8939215043527
 20
140.7205300803579
 30
0.0
  0
VERTEX
  5
F7
330
F4
100
AcDbEntity
  8
Ebene 1
370
     0
100
AcDbVertex
100
AcDb2dVertex
 10
144.8939215043527
 20
140.6958976313885
 30
0.0
  0
VERTEX
  5
F8
330
F4
100
AcDbEntity
  8
Ebene 1
370
     0
100
AcDbVertex
100
AcDb2dVertex
 10
149.1789340957054
 20
137.7815171830408
 30
0.0
  0
VERTEX
  5
F9
330
F4
100
AcDbEntity
  8
Ebene 1
370
     0
100
AcDbVertex
100
AcDb2dVertex
 10
149.1789340957054
 20
140.7205300803579
 30
0.0
  0
SEQEND
  5
FA
330
F4
100
AcDbEntity
  8
Ebene 1
370
     0
  0
HATCH
  5
FB
330
E2
100
AcDbEntity
  8
Ebene 1
 62
     7
100
AcDbHatch
 10
0.0
 20
0.0
 30
0.0
210
0.0
220
0.0
230
1.0
  2
SOLID
 70
     1
 71
     0
 91
        2
 92
        1
 93
       11
 72
     1
 10
149.1789340957054
 20
141.7084118624534
 11
149.1789340957054
 21
142.893870000968
 72
     1
 10
149.1789340957054
 20
142.893870000968
 11
150.1049763730455
 21
142.893870000968
 72
     1
 10
150.1049763730455
 20
142.893870000968
 11
150.1049763730455
 21
141.7084118624534
 72
     1
 10
150.1049763730455
 20
141.7084118624534
 11
152.1548095390328
 21
141.7084118624534
 72
     1
 10
152.1548095390328
 20
141.7084118624534
 11
152.1548095390328
 21
140.7205300803579
 72
     1
 10
152.1548095390328
 20
140.7205300803579
 11
150.1049763730455
 21
140.7205300803579
 72
     1
 10
150.1049763730455
 20
140.7205300803579
 11
150.1049763730455
 21
136.880279609558
 72
     1
 10
150.1049763730455
 20
136.880279609558
 11
149.0924621419806
 21
136.880279609558
 72
     1
 10
149.0924621419806
 20
136.880279609558
 11
143.3997826067247
 21
140.8686692839503
 72
     1
 10
143.3997826067247
 20
140.8686692839503
 11
143.3997826067247
 21
141.7084118624534
 72
     1
 10
143.3997826067247
 20
141.7084118624534
 11
149.1789340957054
 21
141.7084118624534
 97
        0
 92
        1
 93
        4
 72
     1
 10
149.1789340957054
 20
140.7205300803579
 11
144.8939215043527
 21
140.7205300803579
 72
     1
 10
144.8939215043527
 20
140.7205300803579
 11
144.8939215043527
 21
140.6958976313885
 72
     1
 10
144.8939215043527
 20
140.6958976313885
 11
149.1789340957054
 21
137.7815171830408
 72
     1
 10
149.1789340957054
 20
137.7815171830408
 11
149.1789340957054
 21
140.7205300803579
 97
        0
 75
     2
 76
     1
 98
        0
  0
SPLINE
  5
FC
330
E2
100
AcDbEntity
  8
Ebene 1
370
     0
100
AcDbSpline
210
0.0
220
0.0
230
1.0
 70
    11
 71
     3
 72
    17
 73
    13
 74
     0
 42
0.0000000001
 43
0.0000000001
 40
0.0
 40
0.0
 40
0.0
 40
0.0
 40
1.0
 40
1.0
 40
1.0
 40
2.0
 40
2.0
 40
2.0
 40
3.0
 40
3.0
 40
3.0
 40
4.0
 40
4.0
 40
4.0
 40
4.0
 10
143.3997826067247
 20
146.8323057578698
 30
0.0
 10
143.3997826067247
 20
149.5737422987679
 30
0.0
 10
145.9188380873463
 20
149.7465139513296
 30
0.0
 10
147.8573945957513
 20
149.7465139513296
 30
0.0
 10
149.7838932620035
 20
149.7465139513296
 30
0.0
 10
152.3029487426251
 20
149.5737422987679
 30
0.0
 10
152.3029487426251
 20
146.8323057578698
 30
0.0
 10
152.3029487426251
 20
144.0910414718597
 30
0.0
 10
149.7838932620035
 20
143.91809756441
 30
0.0
 10
147.8573945957513
 20
143.91809756441
 30
0.0
 10
145.9188380873463
 20
143.91809756441
 30
0.0
 10
143.3997826067247
 20
144.0910414718597
 30
0.0
 10
143.3997826067247
 20
146.8323057578698
 30
0.0
  0
SPLINE
  5
FD
330
E2
100
AcDbEntity
  8
Ebene 1
370
     0
100
AcDbSpline
210
0.0
220
0.0
230
1.0
 70
    11
 71
     3
 72
    17
 73
    13
 74
     0
 42
0.0000000001
 43
0.0000000001
 40
0.0
 40
0.0
 40
0.0
 40
0.0
 40
1.0
 40
1.0
 40
1.0
 40
2.0
 40
2.0
 40
2.0
 40
3.0
 40
3.0
 40
3.0
 40
4.0
 40
4.0
 40
4.0
 40
4.0
 10
151.376906465285
 20
146.8323057578698
 30
0.0
 10
151.376906465285
 20
148.6228953175704
 30
0.0
 10
149.1541293918481
 20
148.6352976694991
 30
0.0
 10
147.8453367535985
 20
148.6352976694991
 30
0.0
 10
146.5486019575017
 20
148.6352976694991
 30
0.0
 10
144.3258248840648
 20
148.6228953175704
 30
0.0
 10
144.3258248840648
 20
146.8323057578698
 30
0.0
 10
144.3258248840648
 20
145.0417161981692
 30
0.0
 10
146.5486019575017
 20
145.0294861011285
 30
0.0
 10
147.8453367535985
 20
145.0294861011285
 30
0.0
 10
149.1541293918481
 20
145.0294861011285
 30
0.0
 10
151.376906465285
 20
145.0417161981692
 30
0.0
 10
151.376906465285
 20
146.8323057578698
 30
0.0
  0
HATCH
  5
FE
330
E2
100
AcDbEntity
  8
Ebene 1
 62
     7
100
AcDbHatch
 10
0.0
 20
0.0
 30
0.0
210
0.0
220
0.0
230
1.0
  2
SOLID
 70
     1
 71
     0
 91
        2
 92
        1
 93
        1
 72
     4
 94
        3
 73
     0
 74
     1
 95
       17
 96
       13
 40
0.0
 40
0.0
 40
0.0
 40
0.0
 40
1.0
 40
1.0
 40
1.0
 40
2.0
 40
2.0
 40
2.0
 40
3.0
 40
3.0
 40
3.0
 40
4.0
 40
4.0
 40
4.0
 40
4.0
 10
143.3997826067247
 20
146.8323057578698
 10
143.3997826067247
 20
149.5737422987679
 10
145.9188380873463
 20
149.7465139513296
 10
147.8573945957513
 20
149.7465139513296
 10
149.7838932620035
 20
149.7465139513296
 10
152.3029487426251
 20
149.5737422987679
 10
152.3029487426251
 20
146.8323057578698
 10
152.3029487426251
 20
144.0910414718597
 10
149.7838932620035
 20
143.91809756441
 10
147.8573945957513
 20
143.91809756441
 10
145.9188380873463
 20
143.91809756441
 10
143.3997826067247
 20
144.0910414718597
 10
143.3997826067247
 20
146.8323057578698
 97
        0
 92
        1
 93
        1
 72
     4
 94
        3
 73
     0
 74
     1
 95
       17
 96
       13
 40
0.0
 40
0.0
 40
0.0
 40
0.0
 40
1.0
 40
1.0
 40
1.0
 40
2.0
 40
2.0
 40
2.0
 40
3.0
 40
3.0
 40
3.0
 40
4.0
 40
4.0
 40
4.0
 40
4.0
 10
151.376906465285
 20
146.8323057578698
 10
151.376906465285
 20
148.6228953175704
 10
149.1541293918481
 20
148.6352976694991
 10
147.8453367535985
 20
148.6352976694991
 10
146.5486019575017
 20
148.6352976694991
 10
144.3258248840648
 20
148.6228953175704
 10
144.3258248840648
 20
146.8323057578698
 10
144.3258248840648
 20
145.0417161981692
 10
146.5486019575017
 20
145.0294861011285
 10
147.8453367535985
 20
145.0294861011285
 10
149.1541293918481
 20
145.0294861011285
 10
151.376906465285
 20
145.0417161981692
 10
151.376906465285
 20
146.8323057578698
 97
        0
 75
     2
 76
     1
 98
        0
  0
ENDBLK
  5
E5
330
E2
100
AcDbEntity
  8
0
100
AcDbBlockEnd
  0
BLOCK
  5
101
330
FF
100
AcDbEntity
  8
0
100
AcDbBlockBegin
  2
block 9
 70
     0
 71
     0
 10
0.0
 20
0.0
 30
0.0
  3
block 9
  1

  0
INSERT
  5
104
330
FF
100
AcDbEntity
  8
Ebene 1
100
AcDbBlockReference
  2
block 10
 10
0.0
 20
0.0
 30
0.0
  0
ENDBLK
  5
102
330
FF
100
AcDbEntity
  8
0
100
AcDbBlockEnd
  0
BLOCK
  5
105
330
103
100
AcDbEntity
  8
0
100
AcDbBlockBegin
  2
block 10
 70
     0
 71
     0
 10
0.0
 20
0.0
 30
0.0
  3
block 10
  1

  0
INSERT
  5
108
330
103
100
AcDbEntity
  8
Ebene 1
100
AcDbBlockReference
  2
block 11
 10
0.0
 20
0.0
 30
0.0
  0
ENDBLK
  5
106
330
103
100
AcDbEntity
  8
0
100
AcDbBlockEnd
  0
BLOCK
  5
109
330
107
100
AcDbEntity
  8
0
100
AcDbBlockBegin
  2
block 11
 70
     0
 71
     0
 10
0.0
 20
0.0
 30
0.0
  3
block 11
  1

  0
SPLINE
  5
10B
330
107
100
AcDbEntity
  8
Ebene 1
370
     0
100
AcDbSpline
210
0.0
220
0.0
230
1.0
 70
    11
 71
     3
 72
    26
 73
    22
 74
     0
 42
0.0000000001
 43
0.0000000001
 40
0.0
 40
0.0
 40
0.0
 40
0.0
 40
1.0
 40
1.0
 40
1.0
 40
2.0
 40
2.0
 40
2.0
 40
3.0
 40
3.0
 40
3.0
 40
4.0
 40
4.0
 40
4.0
 40
5.0
 40
5.0
 40
5.0
 40
6.0
 40
6.0
 40
6.0
 40
7.0
 40
7.0
 40
7.0
 40
7.0
 10
72.39493977603112
 20
183.5167402139733
 30
0.0
 10
72.39493977603112
 20
183.5167402139733
 30
0.0
 10
71.3452184891802
 20
183.5167402139733
 30
0.0
 10
71.3452184891802
 20
183.5167402139733
 30
0.0
 10
71.3452184891802
 20
183.5167402139733
 30
0.0
 10
71.3452184891802
 20
189.7897464665578
 30
0.0
 10
71.3452184891802
 20
189.7897464665578
 30
0.0
 10
71.3452184891802
 20
189.7897464665578
 30
0.0
 10
69.07317651780447
 20
189.7897464665578
 30
0.0
 10
69.07317651780447
 20
189.7897464665578
 30
0.0
 10
69.07317651780447
 20
189.7897464665578
 30
0.0
 10
69.07317651780447
 20
190.629489045061
 30
0.0
 10
69.07317651780447
 20
190.629489045061
 30
0.0
 10
70.27103700824775
 20
190.629489045061
 30
0.0
 10
71.35762084110885
 20
190.950572156103
 30
0.0
 10
71.59223199842606
 20
192.2717671462813
 30
0.0
 10
71.59223199842606
 20
192.2717671462813
 30
0.0
 10
72.39493977603112
 20
192.2717671462813
 30
0.0
 10
72.39493977603112
 20
192.2717671462813
 30
0.0
 10
72.39493977603112
 20
192.2717671462813
 30
0.0
 10
72.39493977603112
 20
183.5167402139733
 30
0.0
 10
72.39493977603112
 20
183.5167402139733
 30
0.0
  0
HATCH
  5
10C
330
107
100
AcDbEntity
  8
Ebene 1
 62
     7
100
AcDbHatch
 10
0.0
 20
0.0
 30
0.0
210
0.0
220
0.0
230
1.0
  2
SOLID
 70
     1
 71
     0
 91
        1
 92
        1
 93
        1
 72
     4
 94
        3
 73
     0
 74
     1
 95
       26
 96
       22
 40
0.0
 40
0.0
 40
0.0
 40
0.0
 40
1.0
 40
1.0
 40
1.0
 40
2.0
 40
2.0
 40
2.0
 40
3.0
 40
3.0
 40
3.0
 40
4.0
 40
4.0
 40
4.0
 40
5.0
 40
5.0
 40
5.0
 40
6.0
 40
6.0
 40
6.0
 40
7.0
 40
7.0
 40
7.0
 40
7.0
 10
72.39493977603112
 20
183.5167402139733
 10
72.39493977603112
 20
183.5167402139733
 10
71.3452184891802
 20
183.5167402139733
 10
71.3452184891802
 20
183.5167402139733
 10
71.3452184891802
 20
183.5167402139733
 10
71.3452184891802
 20
189.7897464665578
 10
71.3452184891802
 20
189.7897464665578
 10
71.3452184891802
 20
189.7897464665578
 10
69.07317651780447
 20
189.7897464665578
 10
69.07317651780447
 20
189.7897464665578
 10
69.07317651780447
 20
189.7897464665578
 10
69.07317651780447
 20
190.629489045061
 10
69.07317651780447
 20
190.629489045061
 10
70.27103700824775
 20
190.629489045061
 10
71.35762084110885
 20
190.950572156103
 10
71.59223199842606
 20
192.2717671462813
 10
71.59223199842606
 20
192.2717671462813
 10
72.39493977603112
 20
192.2717671462813
 10
72.39493977603112
 20
192.2717671462813
 10
72.39493977603112
 20
192.2717671462813
 10
72.39493977603112
 20
183.5167402139733
 10
72.39493977603112
 20
183.5167402139733
 97
        0
 75
     2
 76
     1
 98
        0
  0
SPLINE
  5
10D
330
107
100
AcDbEntity
  8
Ebene 1
370
     0
100
AcDbSpline
210
0.0
220
0.0
230
1.0
 70
    11
 71
     3
 72
    29
 73
    25
 74
     0
 42
0.0000000001
 43
0.0000000001
 40
0.0
 40
0.0
 40
0.0
 40
0.0
 40
1.0
 40
1.0
 40
1.0
 40
2.0
 40
2.0
 40
2.0
 40
3.0
 40
3.0
 40
3.0
 40
4.0
 40
4.0
 40
4.0
 40
5.0
 40
5.0
 40
5.0
 40
6.0
 40
6.0
 40
6.0
 40
7.0
 40
7.0
 40
7.0
 40
8.0
 40
8.0
 40
8.0
 40
8.0
 10
78.23506949532778
 20
192.2717671462813
 30
0.0
 10
80.1489935547634
 20
192.2717671462813
 30
0.0
 10
80.89003408250096
 20
191.1481485125221
 30
0.0
 10
80.89003408250096
 20
190.0367599758037
 30
0.0
 10
80.89003408250096
 20
189.2588569020559
 30
0.0
 10
80.39600706400925
 20
188.5426210781757
 30
0.0
 10
79.67977124012901
 20
188.2215379671337
 30
0.0
 10
80.72949252697994
 20
187.888052504163
 30
0.0
 10
81.23574964251242
 20
187.1225517823439
 30
0.0
 10
81.23574964251242
 20
186.0357956945949
 30
0.0
 10
81.23574964251242
 20
184.3440804405478
 30
0.0
 10
79.95141719834429
 20
183.3686010103809
 30
0.0
 10
78.33377154609339
 20
183.3686010103809
 30
0.0
 10
76.65445864397496
 20
183.3686010103809
 30
0.0
 10
75.35789610276608
 20
184.2453783897822
 30
0.0
 10
75.35789610276608
 20
186.0357956945949
 30
0.0
 10
75.35789610276608
 20
187.0731146295171
 30
0.0
 10
75.9134181162374
 20
187.8758224071222
 30
0.0
 10
76.88906980129215
 20
188.2215379671337
 30
0.0
 10
76.16043162548326
 20
188.5178163743184
 30
0.0
 10
75.66657686187945
 20
189.2464545501273
 30
0.0
 10
75.66657686187945
 20
190.0367599758037
 30
0.0
 10
75.66657686187945
 20
191.4814617206049
 30
0.0
 10
76.88906980129215
 20
192.2717671462813
 30
0.0
 10
78.23506949532778
 20
192.2717671462813
 30
0.0
  0
SPLINE
  5
10E
330
107
100
AcDbEntity
  8
Ebene 1
370
     0
100
AcDbSpline
210
0.0
220
0.0
230
1.0
 70
    11
 71
     3
 72
    17
 73
    13
 74
     0
 42
0.0000000001
 43
0.0000000001
 40
0.0
 40
0.0
 40
0.0
 40
0.0
 40
1.0
 40
1.0
 40
1.0
 40
2.0
 40
2.0
 40
2.0
 40
3.0
 40
3.0
 40
3.0
 40
4.0
 40
4.0
 40
4.0
 40
4.0
 10
78.33377154609339
 20
184.294643287721
 30
0.0
 10
79.38349283294431
 20
184.294643287721
 30
0.0
 10
80.12436110579397
 20
185.0232814635299
 30
0.0
 10
80.12436110579397
 20
185.9987608936968
 30
0.0
 10
80.12436110579397
 20
186.9496078748942
 30
0.0
 10
79.30942323114813
 20
187.6658436987744
 30
0.0
 10
78.32154144905262
 20
187.6658436987744
 30
0.0
 10
77.28422251413035
 20
187.6658436987744
 30
0.0
 10
76.46911238459661
 20
186.999045027721
 30
0.0
 10
76.46911238459661
 20
185.9863585417681
 30
0.0
 10
76.46911238459661
 20
184.9368095098051
 30
0.0
 10
77.24718771323226
 20
184.294643287721
 30
0.0
 10
78.33377154609339
 20
184.294643287721
 30
0.0
  0
SPLINE
  5
10F
330
107
100
AcDbEntity
  8
Ebene 1
370
     0
100
AcDbSpline
210
0.0
220
0.0
230
1.0
 70
    11
 71
     3
 72
    17
 73
    13
 74
     0
 42
0.0000000001
 43
0.0000000001
 40
0.0
 40
0.0
 40
0.0
 40
0.0
 40
1.0
 40
1.0
 40
1.0
 40
2.0
 40
2.0
 40
2.0
 40
3.0
 40
3.0
 40
3.0
 40
4.0
 40
4.0
 40
4.0
 40
4.0
 10
78.33377154609339
 20
188.5920582310025
 30
0.0
 10
79.16111177266788
 20
188.5920582310025
 30
0.0
 10
79.77864554578251
 20
189.1105454435757
 30
0.0
 10
79.77864554578251
 20
189.9997251749056
 30
0.0
 10
79.77864554578251
 20
190.8765025543069
 30
0.0
 10
79.16111177266788
 20
191.3457248689412
 30
0.0
 10
78.30913909712396
 20
191.3457248689412
 30
0.0
 10
77.4693965186208
 20
191.3457248689412
 30
0.0
 10
76.77796539859789
 20
190.8765025543069
 30
0.0
 10
76.77796539859789
 20
189.9997251749056
 30
0.0
 10
76.77796539859789
 20
189.0364758417795
 30
0.0
 10
77.4693965186208
 20
188.5920582310025
 30
0.0
 10
78.33377154609339
 20
188.5920582310025
 30
0.0
  0
HATCH
  5
110
330
107
100
AcDbEntity
  8
Ebene 1
 62
     7
100
AcDbHatch
 10
0.0
 20
0.0
 30
0.0
210
0.0
220
0.0
230
1.0
  2
SOLID
 70
     1
 71
     0
 91
        3
 92
        1
 93
        1
 72
     4
 94
        3
 73
     0
 74
     1
 95
       29
 96
       25
 40
0.0
 40
0.0
 40
0.0
 40
0.0
 40
1.0
 40
1.0
 40
1.0
 40
2.0
 40
2.0
 40
2.0
 40
3.0
 40
3.0
 40
3.0
 40
4.0
 40
4.0
 40
4.0
 40
5.0
 40
5.0
 40
5.0
 40
6.0
 40
6.0
 40
6.0
 40
7.0
 40
7.0
 40
7.0
 40
8.0
 40
8.0
 40
8.0
 40
8.0
 10
78.23506949532778
 20
192.2717671462813
 10
80.1489935547634
 20
192.2717671462813
 10
80.89003408250096
 20
191.1481485125221
 10
80.89003408250096
 20
190.0367599758037
 10
80.89003408250096
 20
189.2588569020559
 10
80.39600706400925
 20
188.5426210781757
 10
79.67977124012901
 20
188.2215379671337
 10
80.72949252697994
 20
187.888052504163
 10
81.23574964251242
 20
187.1225517823439
 10
81.23574964251242
 20
186.0357956945949
 10
81.23574964251242
 20
184.3440804405478
 10
79.95141719834429
 20
183.3686010103809
 10
78.33377154609339
 20
183.3686010103809
 10
76.65445864397496
 20
183.3686010103809
 10
75.35789610276608
 20
184.2453783897822
 10
75.35789610276608
 20
186.0357956945949
 10
75.35789610276608
 20
187.0731146295171
 10
75.9134181162374
 20
187.8758224071222
 10
76.88906980129215
 20
188.2215379671337
 10
76.16043162548326
 20
188.5178163743184
 10
75.66657686187945
 20
189.2464545501273
 10
75.66657686187945
 20
190.0367599758037
 10
75.66657686187945
 20
191.4814617206049
 10
76.88906980129215
 20
192.2717671462813
 10
78.23506949532778
 20
192.2717671462813
 97
        0
 92
        1
 93
        1
 72
     4
 94
        3
 73
     0
 74
     1
 95
       17
 96
       13
 40
0.0
 40
0.0
 40
0.0
 40
0.0
 40
1.0
 40
1.0
 40
1.0
 40
2.0
 40
2.0
 40
2.0
 40
3.0
 40
3.0
 40
3.0
 40
4.0
 40
4.0
 40
4.0
 40
4.0
 10
78.33377154609339
 20
184.294643287721
 10
79.38349283294431
 20
184.294643287721
 10
80.12436110579397
 20
185.0232814635299
 10
80.12436110579397
 20
185.9987608936968
 10
80.12436110579397
 20
186.9496078748942
 10
79.30942323114813
 20
187.6658436987744
 10
78.32154144905262
 20
187.6658436987744
 10
77.28422251413035
 20
187.6658436987744
 10
76.46911238459661
 20
186.999045027721
 10
76.46911238459661
 20
185.9863585417681
 10
76.46911238459661
 20
184.9368095098051
 10
77.24718771323226
 20
184.294643287721
 10
78.33377154609339
 20
184.294643287721
 97
        0
 92
        1
 93
        1
 72
     4
 94
        3
 73
     0
 74
     1
 95
       17
 96
       13
 40
0.0
 40
0.0
 40
0.0
 40
0.0
 40
1.0
 40
1.0
 40
1.0
 40
2.0
 40
2.0
 40
2.0
 40
3.0
 40
3.0
 40
3.0
 40
4.0
 40
4.0
 40
4.0
 40
4.0
 10
78.33377154609339
 20
188.5920582310025
 10
79.16111177266788
 20
188.5920582310025
 10
79.77864554578251
 20
189.1105454435757
 10
79.77864554578251
 20
189.9997251749056
 10
79.77864554578251
 20
190.8765025543069
 10
79.16111177266788
 20
191.3457248689412
 10
78.30913909712396
 20
191.3457248689412
 10
77.4693965186208
 20
191.3457248689412
 10
76.77796539859789
 20
190.8765025543069
 10
76.77796539859789
 20
189.9997251749056
 10
76.77796539859789
 20
189.0364758417795
 10
77.4693965186208
 20
188.5920582310025
 10
78.33377154609339
 20
188.5920582310025
 97
        0
 75
     2
 76
     1
 98
        0
  0
SPLINE
  5
111
330
107
100
AcDbEntity
  8
Ebene 1
370
     0
100
AcDbSpline
210
0.0
220
0.0
230
1.0
 70
    11
 71
     3
 72
    17
 73
    13
 74
     0
 42
0.0000000001
 43
0.0000000001
 40
0.0
 40
0.0
 40
0.0
 40
0.0
 40
1.0
 40
1.0
 40
1.0
 40
2.0
 40
2.0
 40
2.0
 40
3.0
 40
3.0
 40
3.0
 40
4.0
 40
4.0
 40
4.0
 40
4.0
 10
85.16178304748556
 20
192.2717671462813
 30
0.0
 10
87.90321958838356
 20
192.2717671462813
 30
0.0
 10
88.07599124094534
 20
189.7527116656597
 30
0.0
 10
88.07599124094534
 20
187.8139829023668
 30
0.0
 10
88.07599124094534
 20
185.8876564910025
 30
0.0
 10
87.90321958838356
 20
183.3686010103809
 30
0.0
 10
85.16178304748556
 20
183.3686010103809
 30
0.0
 10
82.42051876147544
 20
183.3686010103809
 30
0.0
 10
82.24757485402576
 20
185.8876564910025
 30
0.0
 10
82.24757485402576
 20
187.8139829023668
 30
0.0
 10
82.24757485402576
 20
189.7527116656597
 30
0.0
 10
82.42051876147544
 20
192.2717671462813
 30
0.0
 10
85.16178304748556
 20
192.2717671462813
 30
0.0
  0
SPLINE
  5
112
330
107
100
AcDbEntity
  8
Ebene 1
370
     0
100
AcDbSpline
210
0.0
220
0.0
230
1.0
 70
    11
 71
     3
 72
    17
 73
    13
 74
     0
 42
0.0000000001
 43
0.0000000001
 40
0.0
 40
0.0
 40
0.0
 40
0.0
 40
1.0
 40
1.0
 40
1.0
 40
2.0
 40
2.0
 40
2.0
 40
3.0
 40
3.0
 40
3.0
 40
4.0
 40
4.0
 40
4.0
 40
4.0
 10
85.16178304748556
 20
184.294643287721
 30
0.0
 10
86.95237260718613
 20
184.294643287721
 30
0.0
 10
86.9647749591148
 20
186.5174203611579
 30
0.0
 10
86.9647749591148
 20
187.8263852542954
 30
0.0
 10
86.9647749591148
 20
189.1229477955043
 30
0.0
 10
86.95237260718613
 20
191.3457248689412
 30
0.0
 10
85.16178304748556
 20
191.3457248689412
 30
0.0
 10
83.37136574267286
 20
191.3457248689412
 30
0.0
 10
83.3589633907442
 20
189.1229477955043
 30
0.0
 10
83.3589633907442
 20
187.8263852542954
 30
0.0
 10
83.3589633907442
 20
186.5174203611579
 30
0.0
 10
83.37136574267286
 20
184.294643287721
 30
0.0
 10
85.16178304748556
 20
184.294643287721
 30
0.0
  0
HATCH
  5
113
330
107
100
AcDbEntity
  8
Ebene 1
 62
     7
100
AcDbHatch
 10
0.0
 20
0.0
 30
0.0
210
0.0
220
0.0
230
1.0
  2
SOLID
 70
     1
 71
     0
 91
        2
 92
        1
 93
        1
 72
     4
 94
        3
 73
     0
 74
     1
 95
       17
 96
       13
 40
0.0
 40
0.0
 40
0.0
 40
0.0
 40
1.0
 40
1.0
 40
1.0
 40
2.0
 40
2.0
 40
2.0
 40
3.0
 40
3.0
 40
3.0
 40
4.0
 40
4.0
 40
4.0
 40
4.0
 10
85.16178304748556
 20
192.2717671462813
 10
87.90321958838356
 20
192.2717671462813
 10
88.07599124094534
 20
189.7527116656597
 10
88.07599124094534
 20
187.8139829023668
 10
88.07599124094534
 20
185.8876564910025
 10
87.90321958838356
 20
183.3686010103809
 10
85.16178304748556
 20
183.3686010103809
 10
82.42051876147544
 20
183.3686010103809
 10
82.24757485402576
 20
185.8876564910025
 10
82.24757485402576
 20
187.8139829023668
 10
82.24757485402576
 20
189.7527116656597
 10
82.42051876147544
 20
192.2717671462813
 10
85.16178304748556
 20
192.2717671462813
 97
        0
 92
        1
 93
        1
 72
     4
 94
        3
 73
     0
 74
     1
 95
       17
 96
       13
 40
0.0
 40
0.0
 40
0.0
 40
0.0
 40
1.0
 40
1.0
 40
1.0
 40
2.0
 40
2.0
 40
2.0
 40
3.0
 40
3.0
 40
3.0
 40
4.0
 40
4.0
 40
4.0
 40
4.0
 10
85.16178304748556
 20
184.294643287721
 10
86.95237260718613
 20
184.294643287721
 10
86.9647749591148
 20
186.5174203611579
 10
86.9647749591148
 20
187.8263852542954
 10
86.9647749591148
 20
189.1229477955043
 10
86.95237260718613
 20
191.3457248689412
 10
85.16178304748556
 20
191.3457248689412
 10
83.37136574267286
 20
191.3457248689412
 10
83.3589633907442
 20
189.1229477955043
 10
83.3589633907442
 20
187.8263852542954
 10
83.3589633907442
 20
186.5174203611579
 10
83.37136574267286
 20
184.294643287721
 10
85.16178304748556
 20
184.294643287721
 97
        0
 75
     2
 76
     1
 98
        0
  0
ENDBLK
  5
10A
330
107
100
AcDbEntity
  8
0
100
AcDbBlockEnd
  0
BLOCK
  5
116
330
114
100
AcDbEntity
  8
0
100
AcDbBlockBegin
  2
block 12
 70
     0
 71
     0
 10
0.0
 20
0.0
 30
0.0
  3
block 12
  1

  0
INSERT
  5
119
330
114
100
AcDbEntity
  8
Ebene 1
100
AcDbBlockReference
  2
block 13
 10
0.0
 20
0.0
 30
0.0
  0
ENDBLK
  5
117
330
114
100
AcDbEntity
  8
0
100
AcDbBlockEnd
  0
BLOCK
  5
11A
330
118
100
AcDbEntity
  8
0
100
AcDbBlockBegin
  2
block 13
 70
     0
 71
     0
 10
0.0
 20
0.0
 30
0.0
  3
block 13
  1

  0
INSERT
  5
11D
330
118
100
AcDbEntity
  8
Ebene 1
100
AcDbBlockReference
  2
block 14
 10
0.0
 20
0.0
 30
0.0
  0
ENDBLK
  5
11B
330
118
100
AcDbEntity
  8
0
100
AcDbBlockEnd
  0
BLOCK
  5
11E
330
11C
100
AcDbEntity
  8
0
100
AcDbBlockBegin
  2
block 14
 70
     0
 71
     0
 10
0.0
 20
0.0
 30
0.0
  3
block 14
  1

  0
SPLINE
  5
120
330
11C
100
AcDbEntity
  8
Ebene 1
370
     0
100
AcDbSpline
210
0.0
220
0.0
230
1.0
 70
    11
 71
     3
 72
    26
 73
    22
 74
     0
 42
0.0000000001
 43
0.0000000001
 40
0.0
 40
0.0
 40
0.0
 40
0.0
 40
1.0
 40
1.0
 40
1.0
 40
2.0
 40
2.0
 40
2.0
 40
3.0
 40
3.0
 40
3.0
 40
4.0
 40
4.0
 40
4.0
 40
5.0
 40
5.0
 40
5.0
 40
6.0
 40
6.0
 40
6.0
 40
7.0
 40
7.0
 40
7.0
 40
7.0
 10
204.7487054414033
 20
5.162823500081386
 30
0.0
 10
204.7487054414033
 20
5.162823500081386
 30
0.0
 10
203.6993286643281
 20
5.162823500081386
 30
0.0
 10
203.6993286643281
 20
5.162823500081386
 30
0.0
 10
203.6993286643281
 20
5.162823500081386
 30
0.0
 10
203.6993286643281
 20
11.43600200755382
 30
0.0
 10
203.6993286643281
 20
11.43600200755382
 30
0.0
 10
203.6993286643281
 20
11.43600200755382
 30
0.0
 10
201.4269421831766
 20
11.43600200755382
 30
0.0
 10
201.4269421831766
 20
11.43600200755382
 30
0.0
 10
201.4269421831766
 20
11.43600200755382
 30
0.0
 10
201.4269421831766
 20
12.27557233116909
 30
0.0
 10
201.4269421831766
 20
12.27557233116909
 30
0.0
 10
202.6248026736199
 20
12.27557233116909
 30
0.0
 10
203.711386506481
 20
12.59665544221112
 30
0.0
 10
203.946342173574
 20
13.91785043238943
 30
0.0
 10
203.946342173574
 20
13.91785043238943
 30
0.0
 10
204.7487054414033
 20
13.91785043238943
 30
0.0
 10
204.7487054414033
 20
13.91785043238943
 30
0.0
 10
204.7487054414033
 20
13.91785043238943
 30
0.0
 10
204.7487054414033
 20
5.162823500081386
 30
0.0
 10
204.7487054414033
 20
5.162823500081386
 30
0.0
  0
HATCH
  5
121
330
11C
100
AcDbEntity
  8
Ebene 1
 62
     7
100
AcDbHatch
 10
0.0
 20
0.0
 30
0.0
210
0.0
220
0.0
230
1.0
  2
SOLID
 70
     1
 71
     0
 91
        1
 92
        1
 93
        1
 72
     4
 94
        3
 73
     0
 74
     1
 95
       26
 96
       22
 40
0.0
 40
0.0
 40
0.0
 40
0.0
 40
1.0
 40
1.0
 40
1.0
 40
2.0
 40
2.0
 40
2.0
 40
3.0
 40
3.0
 40
3.0
 40
4.0
 40
4.0
 40
4.0
 40
5.0
 40
5.0
 40
5.0
 40
6.0
 40
6.0
 40
6.0
 40
7.0
 40
7.0
 40
7.0
 40
7.0
 10
204.7487054414033
 20
5.162823500081386
 10
204.7487054414033
 20
5.162823500081386
 10
203.6993286643281
 20
5.162823500081386
 10
203.6993286643281
 20
5.162823500081386
 10
203.6993286643281
 20
5.162823500081386
 10
203.6993286643281
 20
11.43600200755382
 10
203.6993286643281
 20
11.43600200755382
 10
203.6993286643281
 20
11.43600200755382
 10
201.4269421831766
 20
11.43600200755382
 10
201.4269421831766
 20
11.43600200755382
 10
201.4269421831766
 20
11.43600200755382
 10
201.4269421831766
 20
12.27557233116909
 10
201.4269421831766
 20
12.27557233116909
 10
202.6248026736199
 20
12.27557233116909
 10
203.711386506481
 20
12.59665544221112
 10
203.946342173574
 20
13.91785043238943
 10
203.946342173574
 20
13.91785043238943
 10
204.7487054414033
 20
13.91785043238943
 10
204.7487054414033
 20
13.91785043238943
 10
204.7487054414033
 20
13.91785043238943
 10
204.7487054414033
 20
5.162823500081386
 10
204.7487054414033
 20
5.162823500081386
 97
        0
 75
     2
 76
     1
 98
        0
  0
SPLINE
  5
122
330
11C
100
AcDbEntity
  8
Ebene 1
370
     0
100
AcDbSpline
210
0.0
220
0.0
230
1.0
 70
    11
 71
     3
 72
    35
 73
    31
 74
     0
 42
0.0000000001
 43
0.0000000001
 40
0.0
 40
0.0
 40
0.0
 40
0.0
 40
1.0
 40
1.0
 40
1.0
 40
2.0
 40
2.0
 40
2.0
 40
3.0
 40
3.0
 40
3.0
 40
4.0
 40
4.0
 40
4.0
 40
5.0
 40
5.0
 40
5.0
 40
6.0
 40
6.0
 40
6.0
 40
7.0
 40
7.0
 40
7.0
 40
8.0
 40
8.0
 40
8.0
 40
9.0
 40
9.0
 40
9.0
 40
10.0
 40
10.0
 40
10.0
 40
10.0
 10
208.8724874576834
 20
7.274323915936106
 30
0.0
 10
208.9465570594796
 20
6.42235124039218
 30
0.0
 10
209.6379881795025
 20
5.940726573829136
 30
0.0
 10
210.4779030128936
 20
5.940726573829136
 30
0.0
 10
211.7622354570617
 20
5.940726573829136
 30
0.0
 10
212.3919993272171
 20
7.064517462476238
 30
0.0
 10
212.4536665770846
 20
9.32415708192331
 30
0.0
 10
212.4536665770846
 20
9.32415708192331
 30
0.0
 10
212.4288618732273
 20
9.348961785780634
 30
0.0
 10
212.4288618732273
 20
9.348961785780634
 30
0.0
 10
212.0337091603891
 20
8.607921258043074
 30
0.0
 10
211.2558060866413
 20
8.138698943408693
 30
0.0
 10
210.4038334110974
 20
8.138698943408693
 30
0.0
 10
208.6254739484376
 20
8.138698943408693
 30
0.0
 10
207.6377644212299
 20
9.336559433851972
 30
0.0
 10
207.6377644212299
 20
11.06530948879715
 30
0.0
 10
207.6377644212299
 20
12.75719699773213
 30
0.0
 10
208.8232225597446
 20
13.91785043238943
 30
0.0
 10
210.5147655589037
 20
13.91785043238943
 30
0.0
 10
212.1449858179712
 20
13.91785043238943
 30
0.0
 10
213.5154457060884
 20
13.04107305298817
 30
0.0
 10
213.5154457060884
 20
9.731712146690178
 30
0.0
 10
213.5154457060884
 20
6.706227295648223
 30
0.0
 10
212.601805780677
 20
5.014684296489034
 30
0.0
 10
210.4779030128936
 20
5.014684296489034
 30
0.0
 10
209.0082243093471
 20
5.014684296489034
 30
0.0
 10
207.958847532272
 20
5.767782666379459
 30
0.0
 10
207.8227661708325
 20
7.274323915936106
 30
0.0
 10
207.8227661708325
 20
7.274323915936106
 30
0.0
 10
208.8724874576834
 20
7.274323915936106
 30
0.0
 10
208.8724874576834
 20
7.274323915936106
 30
0.0
  0
SPLINE
  5
123
330
11C
100
AcDbEntity
  8
Ebene 1
370
     0
100
AcDbSpline
210
0.0
220
0.0
230
1.0
 70
    11
 71
     3
 72
    17
 73
    13
 74
     0
 42
0.0000000001
 43
0.0000000001
 40
0.0
 40
0.0
 40
0.0
 40
0.0
 40
1.0
 40
1.0
 40
1.0
 40
2.0
 40
2.0
 40
2.0
 40
3.0
 40
3.0
 40
3.0
 40
4.0
 40
4.0
 40
4.0
 40
4.0
 10
210.4655006609649
 20
12.99180815504932
 30
0.0
 10
209.2183752725828
 20
12.99180815504932
 30
0.0
 10
208.7491529579484
 20
11.99169627591304
 30
0.0
 10
208.7491529579484
 20
10.9171702852048
 30
0.0
 10
208.7491529579484
 20
9.953920952078706
 30
0.0
 10
209.4653887818286
 20
9.06508573052459
 30
0.0
 10
210.4779030128936
 20
9.06508573052459
 30
0.0
 10
211.5768891976833
 20
9.06508573052459
 30
0.0
 10
212.2683203177062
 20
9.953920952078706
 30
0.0
 10
212.2683203177062
 20
10.99123988700097
 30
0.0
 10
212.2683203177062
 20
12.06576587770922
 30
0.0
 10
211.6385564475509
 20
12.99180815504932
 30
0.0
 10
210.4655006609649
 20
12.99180815504932
 30
0.0
  0
HATCH
  5
124
330
11C
100
AcDbEntity
  8
Ebene 1
 62
     7
100
AcDbHatch
 10
0.0
 20
0.0
 30
0.0
210
0.0
220
0.0
230
1.0
  2
SOLID
 70
     1
 71
     0
 91
        2
 92
        1
 93
        1
 72
     4
 94
        3
 73
     0
 74
     1
 95
       35
 96
       31
 40
0.0
 40
0.0
 40
0.0
 40
0.0
 40
1.0
 40
1.0
 40
1.0
 40
2.0
 40
2.0
 40
2.0
 40
3.0
 40
3.0
 40
3.0
 40
4.0
 40
4.0
 40
4.0
 40
5.0
 40
5.0
 40
5.0
 40
6.0
 40
6.0
 40
6.0
 40
7.0
 40
7.0
 40
7.0
 40
8.0
 40
8.0
 40
8.0
 40
9.0
 40
9.0
 40
9.0
 40
10.0
 40
10.0
 40
10.0
 40
10.0
 10
208.8724874576834
 20
7.274323915936106
 10
208.9465570594796
 20
6.42235124039218
 10
209.6379881795025
 20
5.940726573829136
 10
210.4779030128936
 20
5.940726573829136
 10
211.7622354570617
 20
5.940726573829136
 10
212.3919993272171
 20
7.064517462476238
 10
212.4536665770846
 20
9.32415708192331
 10
212.4536665770846
 20
9.32415708192331
 10
212.4288618732273
 20
9.348961785780634
 10
212.4288618732273
 20
9.348961785780634
 10
212.0337091603891
 20
8.607921258043074
 10
211.2558060866413
 20
8.138698943408693
 10
210.4038334110974
 20
8.138698943408693
 10
208.6254739484376
 20
8.138698943408693
 10
207.6377644212299
 20
9.336559433851972
 10
207.6377644212299
 20
11.06530948879715
 10
207.6377644212299
 20
12.75719699773213
 10
208.8232225597446
 20
13.91785043238943
 10
210.5147655589037
 20
13.91785043238943
 10
212.1449858179712
 20
13.91785043238943
 10
213.5154457060884
 20
13.04107305298817
 10
213.5154457060884
 20
9.731712146690178
 10
213.5154457060884
 20
6.706227295648223
 10
212.601805780677
 20
5.014684296489034
 10
210.4779030128936
 20
5.014684296489034
 10
209.0082243093471
 20
5.014684296489034
 10
207.958847532272
 20
5.767782666379459
 10
207.8227661708325
 20
7.274323915936106
 10
207.8227661708325
 20
7.274323915936106
 10
208.8724874576834
 20
7.274323915936106
 10
208.8724874576834
 20
7.274323915936106
 97
        0
 92
        1
 93
        1
 72
     4
 94
        3
 73
     0
 74
     1
 95
       17
 96
       13
 40
0.0
 40
0.0
 40
0.0
 40
0.0
 40
1.0
 40
1.0
 40
1.0
 40
2.0
 40
2.0
 40
2.0
 40
3.0
 40
3.0
 40
3.0
 40
4.0
 40
4.0
 40
4.0
 40
4.0
 10
210.4655006609649
 20
12.99180815504932
 10
209.2183752725828
 20
12.99180815504932
 10
208.7491529579484
 20
11.99169627591304
 10
208.7491529579484
 20
10.9171702852048
 10
208.7491529579484
 20
9.953920952078706
 10
209.4653887818286
 20
9.06508573052459
 10
210.4779030128936
 20
9.06508573052459
 10
211.5768891976833
 20
9.06508573052459
 10
212.2683203177062
 20
9.953920952078706
 10
212.2683203177062
 20
10.99123988700097
 10
212.2683203177062
 20
12.06576587770922
 10
211.6385564475509
 20
12.99180815504932
 10
210.4655006609649
 20
12.99180815504932
 97
        0
 75
     2
 76
     1
 98
        0
  0
ENDBLK
  5
11F
330
11C
100
AcDbEntity
  8
0
100
AcDbBlockEnd
  0
ENDSEC
  0
SECTION
  2
ENTITIES
  0
POLYLINE
  5
3C
330
1F
100
AcDbEntity
  8
Ebene 1
 62
     7
370
   106
100
AcDb2dPolyline
 66
     1
 10
0.0
 20
0.0
 30
0.0
  0
VERTEX
  5
3D
330
3C
100
AcDbEntity
  8
Ebene 1
 62
     7
370
   106
100
AcDbVertex
100
AcDb2dVertex
 10
65.43618681472431
 20
208.7250372736426
 30
0.0
  0
VERTEX
  5
3E
330
3C
100
AcDbEntity
  8
Ebene 1
 62
     7
370
   106
100
AcDbVertex
100
AcDb2dVertex
 10
65.43618681472431
 20
214.1248834994718
 30
0.0
  0
VERTEX
  5
3F
330
3C
100
AcDbEntity
  8
Ebene 1
 62
     7
370
   106
100
AcDbVertex
100
AcDb2dVertex
 10
57.63614098092325
 20
214.1248834994718
 30
0.0
  0
VERTEX
  5
40
330
3C
100
AcDbEntity
  8
Ebene 1
 62
     7
370
   106
100
AcDbVertex
100
AcDb2dVertex
 10
57.63614098092325
 20
208.7250372736426
 30
0.0
  0
VERTEX
  5
41
330
3C
100
AcDbEntity
  8
Ebene 1
 62
     7
370
   106
100
AcDbVertex
100
AcDb2dVertex
 10
65.43618681472431
 20
208.7250372736426
 30
0.0
  0
SEQEND
  5
42
330
3C
100
AcDbEntity
  8
Ebene 1
370
   106
  0
POLYLINE
  5
43
330
1F
100
AcDbEntity
  8
Ebene 1
 62
     7
370
   106
100
AcDb2dPolyline
 66
     1
 10
0.0
 20
0.0
 30
0.0
  0
VERTEX
  5
44
330
43
100
AcDbEntity
  8
Ebene 1
 62
     7
370
   106
100
AcDbVertex
100
AcDb2dVertex
 10
105.2361954282404
 20
208.7250372736426
 30
0.0
  0
VERTEX
  5
45
330
43
100
AcDbEntity
  8
Ebene 1
 62
     7
370
   106
100
AcDbVertex
100
AcDb2dVertex
 10
105.2361954282404
 20
214.1248834994718
 30
0.0
  0
VERTEX
  5
46
330
43
100
AcDbEntity
  8
Ebene 1
 62
     7
370
   106
100
AcDbVertex
100
AcDb2dVertex
 10
97.43614959443936
 20
214.1248834994718
 30
0.0
  0
VERTEX
  5
47
330
43
100
AcDbEntity
  8
Ebene 1
 62
     7
370
   106
100
AcDbVertex
100
AcDb2dVertex
 10
97.43614959443936
 20
208.7250372736426
 30
0.0
  0
VERTEX
  5
48
330
43
100
AcDbEntity
  8
Ebene 1
 62
     7
370
   106
100
AcDbVertex
100
AcDb2dVertex
 10
105.2361954282404
 20
208.7250372736426
 30
0.0
  0
SEQEND
  5
49
330
43
100
AcDbEntity
  8
Ebene 1
370
   106
  0
POLYLINE
  5
4A
330
1F
100
AcDbEntity
  8
Ebene 1
 62
     7
370
   106
100
AcDb2dPolyline
 66
     1
 10
0.0
 20
0.0
 30
0.0
  0
VERTEX
  5
4B
330
4A
100
AcDbEntity
  8
Ebene 1
 62
     7
370
   106
100
AcDbVertex
100
AcDb2dVertex
 10
37.43615478689069
 20
218.3540855071456
 30
0.0
  0
VERTEX
  5
4C
330
4A
100
AcDbEntity
  8
Ebene 1
 62
     7
370
   106
100
AcDbVertex
100
AcDb2dVertex
 10
37.43615478689069
 20
214.1248834994718
 30
0.0
  0
VERTEX
  5
4D
330
4A
100
AcDbEntity
  8
Ebene 1
 62
     7
370
   106
100
AcDbVertex
100
AcDb2dVertex
 10
45.45513658321021
 20
214.1248834994718
 30
0.0
  0
VERTEX
  5
4E
330
4A
100
AcDbEntity
  8
Ebene 1
 62
     7
370
   106
100
AcDbVertex
100
AcDb2dVertex
 10
45.45513658321021
 20
218.3540855071456
 30
0.0
  0
VERTEX
  5
4F
330
4A
100
AcDbEntity
  8
Ebene 1
 62
     7
370
   106
100
AcDbVertex
100
AcDb2dVertex
 10
37.43615478689069
 20
218.3540855071456
 30
0.0
  0
SEQEND
  5
50
330
4A
100
AcDbEntity
  8
Ebene 1
370
   106
  0
HATCH
  5
51
330
1F
100
AcDbEntity
  8
Ebene 1
 62
   250
100
AcDbHatch
 10
0.0
 20
0.0
 30
0.0
210
0.0
220
0.0
230
1.0
  2
SOLID
 70
     1
 71
     0
 91
        1
 92
        1
 93
        4
 72
     1
 10
37.43615478689069
 20
218.3540855071456
 11
37.43615478689069
 21
214.1248834994718
 72
     1
 10
37.43615478689069
 20
214.1248834994718
 11
45.45513658321021
 21
214.1248834994718
 72
     1
 10
45.45513658321021
 20
214.1248834994718
 11
45.45513658321021
 21
218.3540855071456
 72
     1
 10
45.45513658321021
 20
218.3540855071456
 11
37.43615478689069
 21
218.3540855071456
 97
        0
 75
     2
 76
     1
 98
        0
  0
POLYLINE
  5
52
330
1F
100
AcDbEntity
  8
Ebene 1
 62
     7
370
   106
100
AcDb2dPolyline
 66
     1
 10
0.0
 20
0.0
 30
0.0
  0
VERTEX
  5
53
330
52
100
AcDbEntity
  8
Ebene 1
 62
     7
370
   106
100
AcDbVertex
100
AcDb2dVertex
 10
57.63872480424173
 20
218.3540855071456
 30
0.0
  0
VERTEX
  5
54
330
52
100
AcDbEntity
  8
Ebene 1
 62
     7
370
   106
100
AcDbVertex
100
AcDb2dVertex
 10
57.63872480424173
 20
214.1248834994718
 30
0.0
  0
VERTEX
  5
55
330
52
100
AcDbEntity
  8
Ebene 1
 62
     7
370
   106
100
AcDbVertex
100
AcDb2dVertex
 10
65.43618681472431
 20
214.1248834994718
 30
0.0
  0
VERTEX
  5
56
330
52
100
AcDbEntity
  8
Ebene 1
 62
     7
370
   106
100
AcDbVertex
100
AcDb2dVertex
 10
65.43618681472431
 20
218.3540855071456
 30
0.0
  0
VERTEX
  5
57
330
52
100
AcDbEntity
  8
Ebene 1
 62
     7
370
   106
100
AcDbVertex
100
AcDb2dVertex
 10
57.63872480424173
 20
218.3540855071456
 30
0.0
  0
SEQEND
  5
58
330
52
100
AcDbEntity
  8
Ebene 1
370
   106
  0
HATCH
  5
59
330
1F
100
AcDbEntity
  8
Ebene 1
 62
   250
100
AcDbHatch
 10
0.0
 20
0.0
 30
0.0
210
0.0
220
0.0
230
1.0
  2
SOLID
 70
     1
 71
     0
 91
        1
 92
        1
 93
        4
 72
     1
 10
57.63872480424173
 20
218.3540855071456
 11
57.63872480424173
 21
214.1248834994718
 72
     1
 10
57.63872480424173
 20
214.1248834994718
 11
65.43618681472431
 21
214.1248834994718
 72
     1
 10
65.43618681472431
 20
214.1248834994718
 11
65.43618681472431
 21
218.3540855071456
 72
     1
 10
65.43618681472431
 20
218.3540855071456
 11
57.63872480424173
 21
218.3540855071456
 97
        0
 75
     2
 76
     1
 98
        0
  0
POLYLINE
  5
5A
330
1F
100
AcDbEntity
  8
Ebene 1
 62
     7
370
   106
100
AcDb2dPolyline
 66
     1
 10
0.0
 20
0.0
 30
0.0
  0
VERTEX
  5
5B
330
5A
100
AcDbEntity
  8
Ebene 1
 62
     7
370
   106
100
AcDbVertex
100
AcDb2dVertex
 10
118.4173117050897
 20
218.3540855071456
 30
0.0
  0
VERTEX
  5
5C
330
5A
100
AcDbEntity
  8
Ebene 1
 62
     7
370
   106
100
AcDbVertex
100
AcDb2dVertex
 10
118.4173117050897
 20
214.1248834994718
 30
0.0
  0
VERTEX
  5
5D
330
5A
100
AcDbEntity
  8
Ebene 1
 62
     7
370
   106
100
AcDbVertex
100
AcDb2dVertex
 10
126.4364657562972
 20
214.1248834994718
 30
0.0
  0
VERTEX
  5
5E
330
5A
100
AcDbEntity
  8
Ebene 1
 62
     7
370
   106
100
AcDbVertex
100
AcDb2dVertex
 10
126.4364657562972
 20
218.3540855071456
 30
0.0
  0
VERTEX
  5
5F
330
5A
100
AcDbEntity
  8
Ebene 1
 62
     7
370
   106
100
AcDbVertex
100
AcDb2dVertex
 10
118.4173117050897
 20
218.3540855071456
 30
0.0
  0
SEQEND
  5
60
330
5A
100
AcDbEntity
  8
Ebene 1
370
   106
  0
HATCH
  5
61
330
1F
100
AcDbEntity
  8
Ebene 1
 62
   250
100
AcDbHatch
 10
0.0
 20
0.0
 30
0.0
210
0.0
220
0.0
230
1.0
  2
SOLID
 70
     1
 71
     0
 91
        1
 92
        1
 93
        4
 72
     1
 10
118.4173117050897
 20
218.3540855071456
 11
118.4173117050897
 21
214.1248834994718
 72
     1
 10
118.4173117050897
 20
214.1248834994718
 11
126.4364657562972
 21
214.1248834994718
 72
     1
 10
126.4364657562972
 20
214.1248834994718
 11
126.4364657562972
 21
218.3540855071456
 72
     1
 10
126.4364657562972
 20
218.3540855071456
 11
118.4173117050897
 21
218.3540855071456
 97
        0
 75
     2
 76
     1
 98
        0
  0
POLYLINE
  5
62
330
1F
100
AcDbEntity
  8
Ebene 1
 62
     7
370
   106
100
AcDb2dPolyline
 66
     1
 10
0.0
 20
0.0
 30
0.0
  0
VERTEX
  5
63
330
62
100
AcDbEntity
  8
Ebene 1
 62
     7
370
   106
100
AcDbVertex
100
AcDb2dVertex
 10
77.49506249691761
 20
218.3540855071456
 30
0.0
  0
VERTEX
  5
64
330
62
100
AcDbEntity
  8
Ebene 1
 62
     7
370
   106
100
AcDbVertex
100
AcDb2dVertex
 10
77.49506249691761
 20
214.1248834994718
 30
0.0
  0
VERTEX
  5
65
330
62
100
AcDbEntity
  8
Ebene 1
 62
     7
370
   106
100
AcDbVertex
100
AcDb2dVertex
 10
85.51404429323713
 20
214.1248834994718
 30
0.0
  0
VERTEX
  5
66
330
62
100
AcDbEntity
  8
Ebene 1
 62
     7
370
   106
100
AcDbVertex
100
AcDb2dVertex
 10
85.51404429323713
 20
218.3540855071456
 30
0.0
  0
VERTEX
  5
67
330
62
100
AcDbEntity
  8
Ebene 1
 62
     7
370
   106
100
AcDbVertex
100
AcDb2dVertex
 10
77.49506249691761
 20
218.3540855071456
 30
0.0
  0
SEQEND
  5
68
330
62
100
AcDbEntity
  8
Ebene 1
370
   106
  0
HATCH
  5
69
330
1F
100
AcDbEntity
  8
Ebene 1
 62
   250
100
AcDbHatch
 10
0.0
 20
0.0
 30
0.0
210
0.0
220
0.0
230
1.0
  2
SOLID
 70
     1
 71
     0
 91
        1
 92
        1
 93
        4
 72
     1
 10
77.49506249691761
 20
218.3540855071456
 11
77.49506249691761
 21
214.1248834994718
 72
     1
 10
77.49506249691761
 20
214.1248834994718
 11
85.51404429323713
 21
214.1248834994718
 72
     1
 10
85.51404429323713
 20
214.1248834994718
 11
85.51404429323713
 21
218.3540855071456
 72
     1
 10
85.51404429323713
 20
218.3540855071456
 11
77.49506249691761
 21
218.3540855071456
 97
        0
 75
     2
 76
     1
 98
        0
  0
POLYLINE
  5
6A
330
1F
100
AcDbEntity
  8
Ebene 1
 62
     7
370
   106
100
AcDb2dPolyline
 66
     1
 10
0.0
 20
0.0
 30
0.0
  0
VERTEX
  5
6B
330
6A
100
AcDbEntity
  8
Ebene 1
 62
     7
370
   106
100
AcDbVertex
100
AcDb2dVertex
 10
97.43614959443936
 20
218.3540855071456
 30
0.0
  0
VERTEX
  5
6C
330
6A
100
AcDbEntity
  8
Ebene 1
 62
     7
370
   106
100
AcDbVertex
100
AcDb2dVertex
 10
97.43614959443936
 20
214.1248834994718
 30
0.0
  0
VERTEX
  5
6D
330
6A
100
AcDbEntity
  8
Ebene 1
 62
     7
370
   106
100
AcDbVertex
100
AcDb2dVertex
 10
105.2547989561334
 20
214.1248834994718
 30
0.0
  0
VERTEX
  5
6E
330
6A
100
AcDbEntity
  8
Ebene 1
 62
     7
370
   106
100
AcDbVertex
100
AcDb2dVertex
 10
105.2547989561334
 20
218.3540855071456
 30
0.0
  0
VERTEX
  5
6F
330
6A
100
AcDbEntity
  8
Ebene 1
 62
     7
370
   106
100
AcDbVertex
100
AcDb2dVertex
 10
97.43614959443936
 20
218.3540855071456
 30
0.0
  0
SEQEND
  5
70
330
6A
100
AcDbEntity
  8
Ebene 1
370
   106
  0
HATCH
  5
71
330
1F
100
AcDbEntity
  8
Ebene 1
 62
   250
100
AcDbHatch
 10
0.0
 20
0.0
 30
0.0
210
0.0
220
0.0
230
1.0
  2
SOLID
 70
     1
 71
     0
 91
        1
 92
        1
 93
        4
 72
     1
 10
97.43614959443936
 20
218.3540855071456
 11
97.43614959443936
 21
214.1248834994718
 72
     1
 10
97.43614959443936
 20
214.1248834994718
 11
105.2547989561334
 21
214.1248834994718
 72
     1
 10
105.2547989561334
 20
214.1248834994718
 11
105.2547989561334
 21
218.3540855071456
 72
     1
 10
105.2547989561334
 20
218.3540855071456
 11
97.43614959443936
 21
218.3540855071456
 97
        0
 75
     2
 76
     1
 98
        0
  0
POLYLINE
  5
72
330
1F
100
AcDbEntity
  8
Ebene 1
 62
     7
370
   106
100
AcDb2dPolyline
 66
     1
 10
0.0
 20
0.0
 30
0.0
  0
VERTEX
  5
73
330
72
100
AcDbEntity
  8
Ebene 1
 62
     7
370
   106
100
AcDbVertex
100
AcDb2dVertex
 10
37.43615478689069
 20
223.7472137923467
 30
0.0
  0
VERTEX
  5
74
330
72
100
AcDbEntity
  8
Ebene 1
 62
     7
370
   106
100
AcDbVertex
100
AcDb2dVertex
 10
37.43615478689069
 20
218.3609757026615
 30
0.0
  0
VERTEX
  5
75
330
72
100
AcDbEntity
  8
Ebene 1
 62
     7
370
   106
100
AcDbVertex
100
AcDb2dVertex
 10
126.4364657562972
 20
218.3609757026615
 30
0.0
  0
VERTEX
  5
76
330
72
100
AcDbEntity
  8
Ebene 1
 62
     7
370
   106
100
AcDbVertex
100
AcDb2dVertex
 10
126.4364657562972
 20
223.7472137923467
 30
0.0
  0
VERTEX
  5
77
330
72
100
AcDbEntity
  8
Ebene 1
 62
     7
370
   106
100
AcDbVertex
100
AcDb2dVertex
 10
37.43615478689069
 20
223.7472137923467
 30
0.0
  0
SEQEND
  5
78
330
72
100
AcDbEntity
  8
Ebene 1
370
   106
  0
HATCH
  5
79
330
1F
100
AcDbEntity
  8
Ebene 1
 62
   250
100
AcDbHatch
 10
0.0
 20
0.0
 30
0.0
210
0.0
220
0.0
230
1.0
  2
SOLID
 70
     1
 71
     0
 91
        1
 92
        1
 93
        4
 72
     1
 10
37.43615478689069
 20
223.7472137923467
 11
37.43615478689069
 21
218.3609757026615
 72
     1
 10
37.43615478689069
 20
218.3609757026615
 11
126.4364657562971
 21
218.3609757026615
 72
     1
 10
126.4364657562972
 20
218.3609757026615
 11
126.4364657562972
 21
223.7472137923467
 72
     1
 10
126.4364657562972
 20
223.7472137923467
 11
37.4361547868907
 21
223.7472137923467
 97
        0
 75
     2
 76
     1
 98
        0
  0
POLYLINE
  5
7A
330
1F
100
AcDbEntity
  8
Ebene 1
 62
     7
370
   106
100
AcDb2dPolyline
 66
     1
 10
0.0
 20
0.0
 30
0.0
  0
VERTEX
  5
7B
330
7A
100
AcDbEntity
  8
Ebene 1
 62
     7
370
   106
100
AcDbVertex
100
AcDb2dVertex
 10
188.912280067605
 20
25.17126225877128
 30
0.0
  0
VERTEX
  5
7C
330
7A
100
AcDbEntity
  8
Ebene 1
 62
     7
370
   106
100
AcDbVertex
100
AcDb2dVertex
 10
188.912280067605
 20
155.1809834096263
 30
0.0
  0
VERTEX
  5
7D
330
7A
100
AcDbEntity
  8
Ebene 1
 62
     7
370
   106
100
AcDbVertex
100
AcDb2dVertex
 10
184.230392214535
 20
155.1809834096263
 30
0.0
  0
VERTEX
  5
7E
330
7A
100
AcDbEntity
  8
Ebene 1
 62
     7
370
   106
100
AcDbVertex
100
AcDb2dVertex
 10
184.1611457496
 20
25.17126225877128
 30
0.0
  0
VERTEX
  5
7F
330
7A
100
AcDbEntity
  8
Ebene 1
 62
     7
370
   106
100
AcDbVertex
100
AcDb2dVertex
 10
188.912280067605
 20
25.17126225877128
 30
0.0
  0
SEQEND
  5
80
330
7A
100
AcDbEntity
  8
Ebene 1
370
   106
  0
POLYLINE
  5
81
330
1F
100
AcDbEntity
  8
Ebene 1
 62
     7
370
   106
100
AcDb2dPolyline
 66
     1
 10
0.0
 20
0.0
 30
0.0
  0
VERTEX
  5
82
330
81
100
AcDbEntity
  8
Ebene 1
 62
     7
370
   106
100
AcDbVertex
100
AcDb2dVertex
 10
193.675127717987
 20
25.17126225877128
 30
0.0
  0
VERTEX
  5
83
330
81
100
AcDbEntity
  8
Ebene 1
 62
     7
370
   106
100
AcDbVertex
100
AcDb2dVertex
 10
193.675127717987
 20
155.1809834096263
 30
0.0
  0
VERTEX
  5
84
330
81
100
AcDbEntity
  8
Ebene 1
 62
     7
370
   106
100
AcDbVertex
100
AcDb2dVertex
 10
188.8816186975591
 20
155.1809834096263
 30
0.0
  0
VERTEX
  5
85
330
81
100
AcDbEntity
  8
Ebene 1
 62
     7
370
   106
100
AcDbVertex
100
AcDb2dVertex
 10
188.912280067605
 20
25.17126225877128
 30
0.0
  0
VERTEX
  5
86
330
81
100
AcDbEntity
  8
Ebene 1
 62
     7
370
   106
100
AcDbVertex
100
AcDb2dVertex
 10
193.675127717987
 20
25.17126225877128
 30
0.0
  0
SEQEND
  5
87
330
81
100
AcDbEntity
  8
Ebene 1
370
   106
  0
HATCH
  5
88
330
1F
100
AcDbEntity
  8
Ebene 1
 62
   250
100
AcDbHatch
 10
0.0
 20
0.0
 30
0.0
210
0.0
220
0.0
230
1.0
  2
SOLID
 70
     1
 71
     0
 91
        1
 92
        1
 93
        4
 72
     1
 10
193.675127717987
 20
25.17126225877128
 11
193.675127717987
 21
155.1809834096263
 72
     1
 10
193.675127717987
 20
155.1809834096263
 11
188.8816186975591
 21
155.1809834096263
 72
     1
 10
188.8816186975591
 20
155.1809834096263
 11
188.912280067605
 21
25.17126225877129
 72
     1
 10
188.912280067605
 20
25.17126225877128
 11
193.675127717987
 21
25.17126225877128
 97
        0
 75
     2
 76
     1
 98
        0
  0
POLYLINE
  5
89
330
1F
100
AcDbEntity
  8
Ebene 1
 62
     7
370
   106
100
AcDb2dPolyline
 66
     1
 10
0.0
 20
0.0
 30
0.0
  0
VERTEX
  5
8A
330
89
100
AcDbEntity
  8
Ebene 1
 62
     7
370
   106
100
AcDbVertex
100
AcDb2dVertex
 10
184.230392214535
 20
139.2136443210255
 30
0.0
  0
VERTEX
  5
8B
330
89
100
AcDbEntity
  8
Ebene 1
 62
     7
370
   106
100
AcDbVertex
100
AcDb2dVertex
 10
184.230392214535
 20
155.1809834096263
 30
0.0
  0
VERTEX
  5
8C
330
89
100
AcDbEntity
  8
Ebene 1
 62
     7
370
   106
100
AcDbVertex
100
AcDb2dVertex
 10
178.8302014789301
 20
151.7768823149844
 30
0.0
  0
VERTEX
  5
8D
330
89
100
AcDbEntity
  8
Ebene 1
 62
     7
370
   106
100
AcDbVertex
100
AcDb2dVertex
 10
178.8302014789301
 20
136.0810169297109
 30
0.0
  0
VERTEX
  5
8E
330
89
100
AcDbEntity
  8
Ebene 1
 62
     7
370
   106
100
AcDbVertex
100
AcDb2dVertex
 10
184.230392214535
 20
139.2136443210255
 30
0.0
  0
SEQEND
  5
8F
330
89
100
AcDbEntity
  8
Ebene 1
370
   106
  0
POLYLINE
  5
90
330
1F
100
AcDbEntity
  8
Ebene 1
 62
     7
370
   158
100
AcDb2dPolyline
 66
     1
 10
0.0
 20
0.0
 30
0.0
  0
VERTEX
  5
91
330
90
100
AcDbEntity
  8
Ebene 1
 62
     7
370
   158
100
AcDbVertex
100
AcDb2dVertex
 10
63.14726386433456
 20
25.18090853249358
 30
0.0
  0
VERTEX
  5
135
330
90
100
AcDbEntity
  8
0
100
AcDbVertex
100
AcDb2dVertex
 10
63.14726386433456
 20
25.18090853249358
 30
0.0
  0
SEQEND
  5
92
330
90
100
AcDbEntity
  8
Ebene 1
370
   158
  0
POLYLINE
  5
93
330
1F
100
AcDbEntity
  8
Ebene 1
 62
     7
370
    40
100
AcDb2dPolyline
 66
     1
 10
0.0
 20
0.0
 30
0.0
  0
VERTEX
  5
94
330
93
100
AcDbEntity
  8
Ebene 1
 62
     7
370
    40
100
AcDbVertex
100
AcDb2dVertex
 10
126.4364657562972
 20
185.8506216901044
 30
0.0
  0
VERTEX
  5
95
330
93
100
AcDbEntity
  8
Ebene 1
 62
     7
370
    40
100
AcDbVertex
100
AcDb2dVertex
 10
126.4364657562972
 20
160.6886611952796
 30
0.0
  0
SEQEND
  5
96
330
93
100
AcDbEntity
  8
Ebene 1
370
    40
  0
POLYLINE
  5
97
330
1F
100
AcDbEntity
  8
Ebene 1
 62
     7
370
    40
100
AcDb2dPolyline
 66
     1
 10
0.0
 20
0.0
 30
0.0
  0
VERTEX
  5
98
330
97
100
AcDbEntity
  8
Ebene 1
 62
     7
370
    40
100
AcDbVertex
100
AcDb2dVertex
 10
32.24800981828828
 20
180.1650046052524
 30
0.0
  0
VERTEX
  5
99
330
97
100
AcDbEntity
  8
Ebene 1
 62
     7
370
    40
100
AcDbVertex
100
AcDb2dVertex
 10
133.2219303003785
 20
180.1650046052524
 30
0.0
  0
SEQEND
  5
9A
330
97
100
AcDbEntity
  8
Ebene 1
370
    40
  0
POLYLINE
  5
9B
330
1F
100
AcDbEntity
  8
Ebene 1
 62
     7
370
    40
100
AcDb2dPolyline
 66
     1
 10
0.0
 20
0.0
 30
0.0
  0
VERTEX
  5
9C
330
9B
100
AcDbEntity
  8
Ebene 1
 62
     7
370
    40
100
AcDbVertex
100
AcDb2dVertex
 10
37.43615478689069
 20
186.9089557213503
 30
0.0
  0
VERTEX
  5
9D
330
9B
100
AcDbEntity
  8
Ebene 1
 62
     7
370
    40
100
AcDbVertex
100
AcDb2dVertex
 10
37.43615478689069
 20
160.6886611952796
 30
0.0
  0
SEQEND
  5
9E
330
9B
100
AcDbEntity
  8
Ebene 1
370
    40
  0
POLYLINE
  5
9F
330
1F
100
AcDbEntity
  8
Ebene 1
 62
     7
370
    40
100
AcDb2dPolyline
 66
     1
 10
0.0
 20
0.0
 30
0.0
  0
VERTEX
  5
A0
330
9F
100
AcDbEntity
  8
Ebene 1
 62
     7
370
    40
100
AcDbVertex
100
AcDb2dVertex
 10
154.4275405299601
 20
155.1809834096263
 30
0.0
  0
VERTEX
  5
A1
330
9F
100
AcDbEntity
  8
Ebene 1
 62
     7
370
    40
100
AcDbVertex
100
AcDb2dVertex
 10
174.0959481399391
 20
155.1809834096263
 30
0.0
  0
SEQEND
  5
A2
330
9F
100
AcDbEntity
  8
Ebene 1
370
    40
  0
POLYLINE
  5
A3
330
1F
100
AcDbEntity
  8
Ebene 1
 62
     7
370
    40
100
AcDb2dPolyline
 66
     1
 10
0.0
 20
0.0
 30
0.0
  0
VERTEX
  5
A4
330
A3
100
AcDbEntity
  8
Ebene 1
 62
     7
370
    40
100
AcDbVertex
100
AcDb2dVertex
 10
159.2303513143345
 20
129.4061400236601
 30
0.0
  0
VERTEX
  5
A5
330
A3
100
AcDbEntity
  8
Ebene 1
 62
     7
370
    40
100
AcDbVertex
100
AcDb2dVertex
 10
159.2303513143345
 20
162.3254271400872
 30
0.0
  0
SEQEND
  5
A6
330
A3
100
AcDbEntity
  8
Ebene 1
370
    40
  0
POLYLINE
  5
A7
330
1F
100
AcDbEntity
  8
Ebene 1
 62
     7
370
    40
100
AcDb2dPolyline
 66
     1
 10
0.0
 20
0.0
 30
0.0
  0
VERTEX
  5
A8
330
A7
100
AcDbEntity
  8
Ebene 1
 62
     7
370
    40
100
AcDbVertex
100
AcDb2dVertex
 10
154.4275405299601
 20
135.5811332450307
 30
0.0
  0
VERTEX
  5
A9
330
A7
100
AcDbEntity
  8
Ebene 1
 62
     7
370
    40
100
AcDbVertex
100
AcDb2dVertex
 10
173.7431701295239
 20
135.5811332450307
 30
0.0
  0
SEQEND
  5
AA
330
A7
100
AcDbEntity
  8
Ebene 1
370
    40
  0
POLYLINE
  5
AB
330
1F
100
AcDbEntity
  8
Ebene 1
 62
     7
370
    40
100
AcDb2dPolyline
 66
     1
 10
0.0
 20
0.0
 30
0.0
  0
VERTEX
  5
AC
330
AB
100
AcDbEntity
  8
Ebene 1
 62
     7
370
    40
100
AcDbVertex
100
AcDb2dVertex
 10
5.380553678384565
 20
155.1809834096263
 30
0.0
  0
VERTEX
  5
AD
330
AB
100
AcDbEntity
  8
Ebene 1
 62
     7
370
    40
100
AcDbVertex
100
AcDb2dVertex
 10
31.08029393322717
 20
155.1809834096263
 30
0.0
  0
SEQEND
  5
AE
330
AB
100
AcDbEntity
  8
Ebene 1
370
    40
  0
POLYLINE
  5
AF
330
1F
100
AcDbEntity
  8
Ebene 1
 62
     7
370
    40
100
AcDb2dPolyline
 66
     1
 10
0.0
 20
0.0
 30
0.0
  0
VERTEX
  5
B0
330
AF
100
AcDbEntity
  8
Ebene 1
 62
     7
370
    40
100
AcDbVertex
100
AcDb2dVertex
 10
12.4361138866901
 20
18.82263611039948
 30
0.0
  0
VERTEX
  5
B1
330
AF
100
AcDbEntity
  8
Ebene 1
 62
     7
370
    40
100
AcDbVertex
100
AcDb2dVertex
 10
12.4361138866901
 20
162.3254271400872
 30
0.0
  0
SEQEND
  5
B2
330
AF
100
AcDbEntity
  8
Ebene 1
370
    40
  0
POLYLINE
  5
B3
330
1F
100
AcDbEntity
  8
Ebene 1
 62
     7
370
    40
100
AcDb2dPolyline
 66
     1
 10
0.0
 20
0.0
 30
0.0
  0
VERTEX
  5
B4
330
B3
100
AcDbEntity
  8
Ebene 1
 62
     7
370
    40
100
AcDbVertex
100
AcDb2dVertex
 10
3.787712729990978
 20
25.18090853249358
 30
0.0
  0
VERTEX
  5
B5
330
B3
100
AcDbEntity
  8
Ebene 1
 62
     7
370
    40
100
AcDbVertex
100
AcDb2dVertex
 10
31.08029393322717
 20
25.18090853249358
 30
0.0
  0
SEQEND
  5
B6
330
B3
100
AcDbEntity
  8
Ebene 1
370
    40
  0
INSERT
  5
B8
330
1F
100
AcDbEntity
  8
Ebene 1
100
AcDbBlockReference
  2
block 2
 10
0.0
 20
0.0
 30
0.0
  0
POLYLINE
  5
BB
330
1F
100
AcDbEntity
  8
Ebene 1
 62
     7
370
    40
100
AcDb2dPolyline
 66
     1
 10
0.0
 20
0.0
 30
0.0
  0
VERTEX
  5
BC
330
BB
100
AcDbEntity
  8
Ebene 1
 62
     7
370
    40
100
AcDbVertex
100
AcDb2dVertex
 10
178.9728285261097
 20
0.603925636970684
 30
0.0
  0
VERTEX
  5
BD
330
BB
100
AcDbEntity
  8
Ebene 1
 62
     7
370
    40
100
AcDbVertex
100
AcDb2dVertex
 10
220.6027008137672
 20
0.603925636970684
 30
0.0
  0
SEQEND
  5
BE
330
BB
100
AcDbEntity
  8
Ebene 1
370
    40
  0
POLYLINE
  5
BF
330
1F
100
AcDbEntity
  8
Ebene 1
 62
     7
370
    40
100
AcDb2dPolyline
 66
     1
 10
0.0
 20
0.0
 30
0.0
  0
VERTEX
  5
C0
330
BF
100
AcDbEntity
  8
Ebene 1
 62
     7
370
    40
100
AcDbVertex
100
AcDb2dVertex
 10
184.1611457496
 20
19.87959210254213
 30
0.0
  0
VERTEX
  5
C1
330
BF
100
AcDbEntity
  8
Ebene 1
 62
     7
370
    40
100
AcDbVertex
100
AcDb2dVertex
 10
184.1611457496
 20
-6.116771069260978
 30
0.0
  0
SEQEND
  5
C2
330
BF
100
AcDbEntity
  8
Ebene 1
370
    40
  0
POLYLINE
  5
C3
330
1F
100
AcDbEntity
  8
Ebene 1
 62
     7
370
    40
100
AcDb2dPolyline
 66
     1
 10
0.0
 20
0.0
 30
0.0
  0
VERTEX
  5
C4
330
C3
100
AcDbEntity
  8
Ebene 1
 62
     7
370
    40
100
AcDbVertex
100
AcDb2dVertex
 10
193.6610028171794
 20
19.87959210254213
 30
0.0
  0
VERTEX
  5
C5
330
C3
100
AcDbEntity
  8
Ebene 1
 62
     7
370
    40
100
AcDbVertex
100
AcDb2dVertex
 10
193.6610028171794
 20
-6.116771069260978
 30
0.0
  0
SEQEND
  5
C6
330
C3
100
AcDbEntity
  8
Ebene 1
370
    40
  0
SPLINE
  5
C7
330
1F
100
AcDbEntity
  8
Ebene 1
 62
     7
370
   106
100
AcDbSpline
210
0.0
220
0.0
230
1.0
 70
    11
 71
     3
 72
    23
 73
    19
 74
     0
 42
0.0000000001
 43
0.0000000001
 40
0.0
 40
0.0
 40
0.0
 40
0.0
 40
1.0
 40
1.0
 40
1.0
 40
2.0
 40
2.0
 40
2.0
 40
3.0
 40
3.0
 40
3.0
 40
4.0
 40
4.0
 40
4.0
 40
5.0
 40
5.0
 40
5.0
 40
6.0
 40
6.0
 40
6.0
 40
6.0
 10
126.1677481311761
 20
155.4715774055104
 30
0.0
 10
126.1677481311761
 20
155.4715774055104
 30
0.0
 10
37.16760941665758
 20
155.4715774055104
 30
0.0
 10
37.16760941665758
 20
155.4715774055104
 30
0.0
 10
37.16760941665758
 20
155.4715774055104
 30
0.0
 10
37.16760941665758
 20
30.46431045410362
 30
0.0
 10
37.16760941665758
 20
30.46431045410362
 30
0.0
 10
37.16760941665758
 20
27.7144334236986
 30
0.0
 10
39.41760276238235
 20
25.46478458774962
 30
0.0
 10
42.16747979278738
 20
25.46478458774962
 30
0.0
 10
42.16747979278738
 20
25.46478458774962
 30
0.0
 10
121.1675332452705
 20
25.46478458774962
 30
0.0
 10
121.1675332452705
 20
25.46478458774962
 30
0.0
 10
123.9174102756756
 20
25.46478458774962
 30
0.0
 10
126.1677481311761
 20
27.7144334236986
 30
0.0
 10
126.1677481311761
 20
30.46431045410362
 30
0.0
 10
126.1677481311761
 20
30.46431045410362
 30
0.0
 10
126.1677481311761
 20
155.4715774055104
 30
0.0
 10
126.1677481311761
 20
155.4715774055104
 30
0.0
  0
INSERT
  5
C9
330
1F
100
AcDbEntity
  8
Ebene 1
100
AcDbBlockReference
  2
block 3
 10
0.0
 20
0.0
 30
0.0
  0
INSERT
  5
DB
330
1F
100
AcDbEntity
  8
Ebene 1
100
AcDbBlockReference
  2
block 6
 10
0.0
 20
0.0
 30
0.0
  0
INSERT
  5
100
330
1F
100
AcDbEntity
  8
Ebene 1
100
AcDbBlockReference
  2
block 9
 10
0.0
 20
0.0
 30
0.0
  0
INSERT
  5
115
330
1F
100
AcDbEntity
  8
Ebene 1
100
AcDbBlockReference
  2
block 12
 10
0.0
 20
0.0
 30
0.0
  0
SPLINE
  5
125
330
1F
100
AcDbEntity
  8
Ebene 1
370
     0
100
AcDbSpline
210
0.0
220
0.0
230
1.0
 70
    11
 71
     3
 72
    17
 73
    13
 74
     0
 42
0.0000000001
 43
0.0000000001
 40
0.0
 40
0.0
 40
0.0
 40
0.0
 40
1.0
 40
1.0
 40
1.0
 40
2.0
 40
2.0
 40
2.0
 40
3.0
 40
3.0
 40
3.0
 40
4.0
 40
4.0
 40
4.0
 40
4.0
 10
13.25070725156014
 20
25.24912146810122
 30
0.0
 10
13.25070725156014
 20
24.78058817301843
 30
0.0
 10
12.86003316580729
 20
24.40197192941844
 30
0.0
 10
12.37875300902004
 20
24.40197192941844
 30
0.0
 10
11.89781736200859
 20
24.40197192941844
 30
0.0
 10
11.50679876647994
 20
24.78058817301843
 30
0.0
 10
11.50679876647994
 20
25.24912146810122
 30
0.0
 10
11.50679876647994
 20
25.71662123385662
 30
0.0
 10
11.89781736200859
 20
26.0959264970082
 30
0.0
 10
12.37875300902004
 20
26.0959264970082
 30
0.0
 10
12.86003316580729
 20
26.0959264970082
 30
0.0
 10
13.25070725156014
 20
25.71662123385662
 30
0.0
 10
13.25070725156014
 20
25.24912146810122
 30
0.0
  0
HATCH
  5
126
330
1F
100
AcDbEntity
  8
Ebene 1
 62
     7
100
AcDbHatch
 10
0.0
 20
0.0
 30
0.0
210
0.0
220
0.0
230
1.0
  2
SOLID
 70
     1
 71
     0
 91
        1
 92
        1
 93
        2
 72
     4
 94
        3
 73
     0
 74
     0
 95
       17
 96
       13
 40
0.0
 40
0.0
 40
0.0
 40
0.0
 40
0.3527780104152769
 40
0.3527780104152769
 40
0.3527780104152769
 40
0.7055560208305538
 40
0.7055560208305538
 40
0.7055560208305538
 40
1.058334031245831
 40
1.058334031245831
 40
1.058334031245831
 40
1.411112041661108
 40
1.411112041661108
 40
1.411112041661108
 40
1.411112041661108
 10
13.25070725156014
 20
25.24912146810122
 10
13.25070725156014
 20
24.78058817301843
 10
12.86003316580729
 20
24.40197192941844
 10
12.37875300902004
 20
24.40197192941844
 10
11.89781736200859
 20
24.40197192941844
 10
11.50679876647994
 20
24.78058817301843
 10
11.50679876647994
 20
25.24912146810122
 10
11.50679876647994
 20
25.71662123385662
 10
11.89781736200859
 20
26.0959264970082
 10
12.37875300902004
 20
26.0959264970082
 10
12.86003316580729
 20
26.0959264970082
 10
13.25070725156014
 20
25.71662123385662
 10
13.25070725156014
 20
25.24912146810122
 72
     1
 10
13.25070725156014
 20
25.24912146810122
 11
13.25070725156014
 21
25.24912146810122
 97
        0
 75
     2
 76
     1
 98
        0
  0
SPLINE
  5
127
330
1F
100
AcDbEntity
  8
Ebene 1
370
     0
100
AcDbSpline
210
0.0
220
0.0
230
1.0
 70
    11
 71
     3
 72
    17
 73
    13
 74
     0
 42
0.0000000001
 43
0.0000000001
 40
0.0
 40
0.0
 40
0.0
 40
0.0
 40
1.0
 40
1.0
 40
1.0
 40
2.0
 40
2.0
 40
2.0
 40
3.0
 40
3.0
 40
3.0
 40
4.0
 40
4.0
 40
4.0
 40
4.0
 10
13.25070725156014
 20
155.2478183061307
 30
0.0
 10
13.25070725156014
 20
154.779285011048
 30
0.0
 10
12.86003316580729
 20
154.400668767448
 30
0.0
 10
12.37875300902004
 20
154.400668767448
 30
0.0
 10
11.89781736200859
 20
154.400668767448
 30
0.0
 10
11.50679876647994
 20
154.779285011048
 30
0.0
 10
11.50679876647994
 20
155.2478183061307
 30
0.0
 10
11.50679876647994
 20
155.7153180718861
 30
0.0
 10
11.89781736200859
 20
156.0946233350377
 30
0.0
 10
12.37875300902004
 20
156.0946233350377
 30
0.0
 10
12.86003316580729
 20
156.0946233350377
 30
0.0
 10
13.25070725156014
 20
155.7153180718861
 30
0.0
 10
13.25070725156014
 20
155.2478183061307
 30
0.0
  0
HATCH
  5
128
330
1F
100
AcDbEntity
  8
Ebene 1
 62
     7
100
AcDbHatch
 10
0.0
 20
0.0
 30
0.0
210
0.0
220
0.0
230
1.0
  2
SOLID
 70
     1
 71
     0
 91
        1
 92
        1
 93
        2
 72
     4
 94
        3
 73
     0
 74
     0
 95
       17
 96
       13
 40
0.0
 40
0.0
 40
0.0
 40
0.0
 40
0.3527780104152769
 40
0.3527780104152769
 40
0.3527780104152769
 40
0.7055560208305538
 40
0.7055560208305538
 40
0.7055560208305538
 40
1.058334031245831
 40
1.058334031245831
 40
1.058334031245831
 40
1.411112041661108
 40
1.411112041661108
 40
1.411112041661108
 40
1.411112041661108
 10
13.25070725156014
 20
155.2478183061307
 10
13.25070725156014
 20
154.779285011048
 10
12.86003316580729
 20
154.400668767448
 10
12.37875300902004
 20
154.400668767448
 10
11.89781736200859
 20
154.400668767448
 10
11.50679876647994
 20
154.779285011048
 10
11.50679876647994
 20
155.2478183061307
 10
11.50679876647994
 20
155.7153180718861
 10
11.89781736200859
 20
156.0946233350377
 10
12.37875300902004
 20
156.0946233350377
 10
12.86003316580729
 20
156.0946233350377
 10
13.25070725156014
 20
155.7153180718861
 10
13.25070725156014
 20
155.2478183061307
 72
     1
 10
13.25070725156014
 20
155.2478183061307
 11
13.25070725156014
 21
155.2478183061307
 97
        0
 75
     2
 76
     1
 98
        0
  0
SPLINE
  5
129
330
1F
100
AcDbEntity
  8
Ebene 1
370
     0
100
AcDbSpline
210
0.0
220
0.0
230
1.0
 70
    11
 71
     3
 72
    17
 73
    13
 74
     0
 42
0.0000000001
 43
0.0000000001
 40
0.0
 40
0.0
 40
0.0
 40
0.0
 40
1.0
 40
1.0
 40
1.0
 40
2.0
 40
2.0
 40
2.0
 40
3.0
 40
3.0
 40
3.0
 40
4.0
 40
4.0
 40
4.0
 40
4.0
 10
38.29794599104481
 20
180.1186680404078
 30
0.0
 10
38.29794599104481
 20
179.650134745325
 30
0.0
 10
37.90727190529195
 20
179.271518501725
 30
0.0
 10
37.4259917485047
 20
179.271518501725
 30
0.0
 10
36.94505610149325
 20
179.271518501725
 30
0.0
 10
36.55403750596459
 20
179.650134745325
 30
0.0
 10
36.55403750596459
 20
180.1186680404078
 30
0.0
 10
36.55403750596459
 20
180.5861678061632
 30
0.0
 10
36.94505610149325
 20
180.9654730693148
 30
0.0
 10
37.4259917485047
 20
180.9654730693148
 30
0.0
 10
37.90727190529195
 20
180.9654730693148
 30
0.0
 10
38.29794599104481
 20
180.5861678061632
 30
0.0
 10
38.29794599104481
 20
180.1186680404078
 30
0.0
  0
HATCH
  5
12A
330
1F
100
AcDbEntity
  8
Ebene 1
 62
     7
100
AcDbHatch
 10
0.0
 20
0.0
 30
0.0
210
0.0
220
0.0
230
1.0
  2
SOLID
 70
     1
 71
     0
 91
        1
 92
        1
 93
        2
 72
     4
 94
        3
 73
     0
 74
     0
 95
       17
 96
       13
 40
0.0
 40
0.0
 40
0.0
 40
0.0
 40
0.3527780104152769
 40
0.3527780104152769
 40
0.3527780104152769
 40
0.7055560208305538
 40
0.7055560208305538
 40
0.7055560208305538
 40
1.058334031245831
 40
1.058334031245831
 40
1.058334031245831
 40
1.411112041661108
 40
1.411112041661108
 40
1.411112041661108
 40
1.411112041661108
 10
38.29794599104481
 20
180.1186680404078
 10
38.29794599104481
 20
179.650134745325
 10
37.90727190529195
 20
179.271518501725
 10
37.4259917485047
 20
179.271518501725
 10
36.94505610149325
 20
179.271518501725
 10
36.55403750596459
 20
179.650134745325
 10
36.55403750596459
 20
180.1186680404078
 10
36.55403750596459
 20
180.5861678061632
 10
36.94505610149325
 20
180.9654730693148
 10
37.4259917485047
 20
180.9654730693148
 10
37.90727190529195
 20
180.9654730693148
 10
38.29794599104481
 20
180.5861678061632
 10
38.29794599104481
 20
180.1186680404078
 72
     1
 10
38.29794599104481
 20
180.1186680404078
 11
38.29794599104481
 21
180.1186680404078
 97
        0
 75
     2
 76
     1
 98
        0
  0
SPLINE
  5
12B
330
1F
100
AcDbEntity
  8
Ebene 1
370
     0
100
AcDbSpline
210
0.0
220
0.0
230
1.0
 70
    11
 71
     3
 72
    17
 73
    13
 74
     0
 42
0.0000000001
 43
0.0000000001
 40
0.0
 40
0.0
 40
0.0
 40
0.0
 40
1.0
 40
1.0
 40
1.0
 40
2.0
 40
2.0
 40
2.0
 40
3.0
 40
3.0
 40
3.0
 40
4.0
 40
4.0
 40
4.0
 40
4.0
 10
127.1978323608067
 20
180.1186680404078
 30
0.0
 10
127.1978323608067
 20
179.650134745325
 30
0.0
 10
126.8071582750538
 20
179.271518501725
 30
0.0
 10
126.3262226280424
 20
179.271518501725
 30
0.0
 10
125.8452869810309
 20
179.271518501725
 30
0.0
 10
125.4539238757265
 20
179.650134745325
 30
0.0
 10
125.4539238757265
 20
180.1186680404078
 30
0.0
 10
125.4539238757265
 20
180.5861678061632
 30
0.0
 10
125.8452869810309
 20
180.9654730693148
 30
0.0
 10
126.3262226280424
 20
180.9654730693148
 30
0.0
 10
126.8071582750538
 20
180.9654730693148
 30
0.0
 10
127.1978323608067
 20
180.5861678061632
 30
0.0
 10
127.1978323608067
 20
180.1186680404078
 30
0.0
  0
HATCH
  5
12C
330
1F
100
AcDbEntity
  8
Ebene 1
 62
     7
100
AcDbHatch
 10
0.0
 20
0.0
 30
0.0
210
0.0
220
0.0
230
1.0
  2
SOLID
 70
     1
 71
     0
 91
        1
 92
        1
 93
        2
 72
     4
 94
        3
 73
     0
 74
     0
 95
       17
 96
       13
 40
0.0
 40
0.0
 40
0.0
 40
0.0
 40
0.3527780104152769
 40
0.3527780104152769
 40
0.3527780104152769
 40
0.7055560208305538
 40
0.7055560208305538
 40
0.7055560208305538
 40
1.058334031245831
 40
1.058334031245831
 40
1.058334031245831
 40
1.411112041661108
 40
1.411112041661108
 40
1.411112041661108
 40
1.411112041661108
 10
127.1978323608067
 20
180.1186680404078
 10
127.1978323608067
 20
179.650134745325
 10
126.8071582750538
 20
179.271518501725
 10
126.3262226280424
 20
179.271518501725
 10
125.8452869810309
 20
179.271518501725
 10
125.4539238757265
 20
179.650134745325
 10
125.4539238757265
 20
180.1186680404078
 10
125.4539238757265
 20
180.5861678061632
 10
125.8452869810309
 20
180.9654730693148
 10
126.3262226280424
 20
180.9654730693148
 10
126.8071582750538
 20
180.9654730693148
 10
127.1978323608067
 20
180.5861678061632
 10
127.1978323608067
 20
180.1186680404078
 72
     1
 10
127.1978323608067
 20
180.1186680404078
 11
127.1978323608067
 21
180.1186680404078
 97
        0
 75
     2
 76
     1
 98
        0
  0
SPLINE
  5
12D
330
1F
100
AcDbEntity
  8
Ebene 1
370
     0
100
AcDbSpline
210
0.0
220
0.0
230
1.0
 70
    11
 71
     3
 72
    17
 73
    13
 74
     0
 42
0.0000000001
 43
0.0000000001
 40
0.0
 40
0.0
 40
0.0
 40
0.0
 40
1.0
 40
1.0
 40
1.0
 40
2.0
 40
2.0
 40
2.0
 40
3.0
 40
3.0
 40
3.0
 40
4.0
 40
4.0
 40
4.0
 40
4.0
 10
160.1825763346351
 20
155.2478183061307
 30
0.0
 10
160.1825763346351
 20
154.779285011048
 30
0.0
 10
159.7919022488822
 20
154.400668767448
 30
0.0
 10
159.3109666018708
 20
154.400668767448
 30
0.0
 10
158.8300309548593
 20
154.400668767448
 30
0.0
 10
158.4386678495549
 20
154.779285011048
 30
0.0
 10
158.4386678495549
 20
155.2478183061307
 30
0.0
 10
158.4386678495549
 20
155.7153180718861
 30
0.0
 10
158.8300309548593
 20
156.0946233350377
 30
0.0
 10
159.3109666018708
 20
156.0946233350377
 30
0.0
 10
159.7919022488822
 20
156.0946233350377
 30
0.0
 10
160.1825763346351
 20
155.7153180718861
 30
0.0
 10
160.1825763346351
 20
155.2478183061307
 30
0.0
  0
HATCH
  5
12E
330
1F
100
AcDbEntity
  8
Ebene 1
 62
     7
100
AcDbHatch
 10
0.0
 20
0.0
 30
0.0
210
0.0
220
0.0
230
1.0
  2
SOLID
 70
     1
 71
     0
 91
        1
 92
        1
 93
        2
 72
     4
 94
        3
 73
     0
 74
     0
 95
       17
 96
       13
 40
0.0
 40
0.0
 40
0.0
 40
0.0
 40
0.3527780104152769
 40
0.3527780104152769
 40
0.3527780104152769
 40
0.7055560208305538
 40
0.7055560208305538
 40
0.7055560208305538
 40
1.058334031245831
 40
1.058334031245831
 40
1.058334031245831
 40
1.411112041661108
 40
1.411112041661108
 40
1.411112041661108
 40
1.411112041661108
 10
160.1825763346351
 20
155.2478183061307
 10
160.1825763346351
 20
154.779285011048
 10
159.7919022488822
 20
154.400668767448
 10
159.3109666018708
 20
154.400668767448
 10
158.8300309548593
 20
154.400668767448
 10
158.4386678495549
 20
154.779285011048
 10
158.4386678495549
 20
155.2478183061307
 10
158.4386678495549
 20
155.7153180718861
 10
158.8300309548593
 20
156.0946233350377
 10
159.3109666018708
 20
156.0946233350377
 10
159.7919022488822
 20
156.0946233350377
 10
160.1825763346351
 20
155.7153180718861
 10
160.1825763346351
 20
155.2478183061307
 72
     1
 10
160.1825763346351
 20
155.2478183061307
 11
160.1825763346351
 21
155.2478183061307
 97
        0
 75
     2
 76
     1
 98
        0
  0
SPLINE
  5
12F
330
1F
100
AcDbEntity
  8
Ebene 1
370
     0
100
AcDbSpline
210
0.0
220
0.0
230
1.0
 70
    11
 71
     3
 72
    17
 73
    13
 74
     0
 42
0.0000000001
 43
0.0000000001
 40
0.0
 40
0.0
 40
0.0
 40
0.0
 40
1.0
 40
1.0
 40
1.0
 40
2.0
 40
2.0
 40
2.0
 40
3.0
 40
3.0
 40
3.0
 40
4.0
 40
4.0
 40
4.0
 40
4.0
 10
160.1825763346351
 20
135.6686387280829
 30
0.0
 10
160.1825763346351
 20
135.2001054330001
 30
0.0
 10
159.7919022488822
 20
134.8214891894001
 30
0.0
 10
159.3109666018708
 20
134.8214891894001
 30
0.0
 10
158.8300309548593
 20
134.8214891894001
 30
0.0
 10
158.4386678495549
 20
135.2001054330001
 30
0.0
 10
158.4386678495549
 20
135.6686387280829
 30
0.0
 10
158.4386678495549
 20
136.1361384938383
 30
0.0
 10
158.8300309548593
 20
136.5154437569899
 30
0.0
 10
159.3109666018708
 20
136.5154437569899
 30
0.0
 10
159.7919022488822
 20
136.5154437569899
 30
0.0
 10
160.1825763346351
 20
136.1361384938383
 30
0.0
 10
160.1825763346351
 20
135.6686387280829
 30
0.0
  0
HATCH
  5
130
330
1F
100
AcDbEntity
  8
Ebene 1
 62
     7
100
AcDbHatch
 10
0.0
 20
0.0
 30
0.0
210
0.0
220
0.0
230
1.0
  2
SOLID
 70
     1
 71
     0
 91
        1
 92
        1
 93
        2
 72
     4
 94
        3
 73
     0
 74
     0
 95
       17
 96
       13
 40
0.0
 40
0.0
 40
0.0
 40
0.0
 40
0.3527780104152769
 40
0.3527780104152769
 40
0.3527780104152769
 40
0.7055560208305538
 40
0.7055560208305538
 40
0.7055560208305538
 40
1.058334031245831
 40
1.058334031245831
 40
1.058334031245831
 40
1.411112041661108
 40
1.411112041661108
 40
1.411112041661108
 40
1.411112041661108
 10
160.1825763346351
 20
135.6686387280829
 10
160.1825763346351
 20
135.2001054330001
 10
159.7919022488822
 20
134.8214891894001
 10
159.3109666018708
 20
134.8214891894001
 10
158.8300309548593
 20
134.8214891894001
 10
158.4386678495549
 20
135.2001054330001
 10
158.4386678495549
 20
135.6686387280829
 10
158.4386678495549
 20
136.1361384938383
 10
158.8300309548593
 20
136.5154437569899
 10
159.3109666018708
 20
136.5154437569899
 10
159.7919022488822
 20
136.5154437569899
 10
160.1825763346351
 20
136.1361384938383
 10
160.1825763346351
 20
135.6686387280829
 72
     1
 10
160.1825763346351
 20
135.6686387280829
 11
160.1825763346351
 21
135.6686387280829
 97
        0
 75
     2
 76
     1
 98
        0
  0
SPLINE
  5
131
330
1F
100
AcDbEntity
  8
Ebene 1
370
     0
100
AcDbSpline
210
0.0
220
0.0
230
1.0
 70
    11
 71
     3
 72
    17
 73
    13
 74
     0
 42
0.0000000001
 43
0.0000000001
 40
0.0
 40
0.0
 40
0.0
 40
0.0
 40
1.0
 40
1.0
 40
1.0
 40
2.0
 40
2.0
 40
2.0
 40
3.0
 40
3.0
 40
3.0
 40
4.0
 40
4.0
 40
4.0
 40
4.0
 10
185.0534260689121
 20
0.7310497442394703
 30
0.0
 10
185.0534260689121
 20
0.2625164491566807
 30
0.0
 10
184.6627519831592
 20
-0.1160997944433089
 30
0.0
 10
184.1818163361478
 20
-0.1160997944433089
 30
0.0
 10
183.7008806891363
 20
-0.1160997944433089
 30
0.0
 10
183.3095175838319
 20
0.2625164491566807
 30
0.0
 10
183.3095175838319
 20
0.7310497442394703
 30
0.0
 10
183.3095175838319
 20
1.198549509994871
 30
0.0
 10
183.7008806891363
 20
1.577854773146453
 30
0.0
 10
184.1818163361478
 20
1.577854773146453
 30
0.0
 10
184.6627519831592
 20
1.577854773146453
 30
0.0
 10
185.0534260689121
 20
1.198549509994871
 30
0.0
 10
185.0534260689121
 20
0.7310497442394703
 30
0.0
  0
HATCH
  5
132
330
1F
100
AcDbEntity
  8
Ebene 1
 62
     7
100
AcDbHatch
 10
0.0
 20
0.0
 30
0.0
210
0.0
220
0.0
230
1.0
  2
SOLID
 70
     1
 71
     0
 91
        1
 92
        1
 93
        2
 72
     4
 94
        3
 73
     0
 74
     0
 95
       17
 96
       13
 40
0.0
 40
0.0
 40
0.0
 40
0.0
 40
0.3527780104152769
 40
0.3527780104152769
 40
0.3527780104152769
 40
0.7055560208305538
 40
0.7055560208305538
 40
0.7055560208305538
 40
1.058334031245831
 40
1.058334031245831
 40
1.058334031245831
 40
1.411112041661108
 40
1.411112041661108
 40
1.411112041661108
 40
1.411112041661108
 10
185.0534260689121
 20
0.7310497442394703
 10
185.0534260689121
 20
0.2625164491566807
 10
184.6627519831592
 20
-0.1160997944433089
 10
184.1818163361478
 20
-0.1160997944433089
 10
183.7008806891363
 20
-0.1160997944433089
 10
183.3095175838319
 20
0.2625164491566807
 10
183.3095175838319
 20
0.7310497442394703
 10
183.3095175838319
 20
1.198549509994871
 10
183.7008806891363
 20
1.577854773146453
 10
184.1818163361478
 20
1.577854773146453
 10
184.6627519831592
 20
1.577854773146453
 10
185.0534260689121
 20
1.198549509994871
 10
185.0534260689121
 20
0.7310497442394703
 72
     1
 10
185.0534260689121
 20
0.7310497442394703
 11
185.0534260689121
 21
0.7310497442394703
 97
        0
 75
     2
 76
     1
 98
        0
  0
SPLINE
  5
133
330
1F
100
AcDbEntity
  8
Ebene 1
370
     0
100
AcDbSpline
210
0.0
220
0.0
230
1.0
 70
    11
 71
     3
 72
    17
 73
    13
 74
     0
 42
0.0000000001
 43
0.0000000001
 40
0.0
 40
0.0
 40
0.0
 40
0.0
 40
1.0
 40
1.0
 40
1.0
 40
2.0
 40
2.0
 40
2.0
 40
3.0
 40
3.0
 40
3.0
 40
4.0
 40
4.0
 40
4.0
 40
4.0
 10
194.5784323501246
 20
0.7310497442394703
 30
0.0
 10
194.5784323501246
 20
0.2625164491566807
 30
0.0
 10
194.1877582643717
 20
-0.1160997944433089
 30
0.0
 10
193.7068226173603
 20
-0.1160997944433089
 30
0.0
 10
193.2258869703488
 20
-0.1160997944433089
 30
0.0
 10
192.8345238650444
 20
0.2625164491566807
 30
0.0
 10
192.8345238650444
 20
0.7310497442394703
 30
0.0
 10
192.8345238650444
 20
1.198549509994871
 30
0.0
 10
193.2258869703488
 20
1.577854773146453
 30
0.0
 10
193.7068226173603
 20
1.577854773146453
 30
0.0
 10
194.1877582643717
 20
1.577854773146453
 30
0.0
 10
194.5784323501246
 20
1.198549509994871
 30
0.0
 10
194.5784323501246
 20
0.7310497442394703
 30
0.0
  0
HATCH
  5
134
330
1F
100
AcDbEntity
  8
Ebene 1
 62
     7
100
AcDbHatch
 10
0.0
 20
0.0
 30
0.0
210
0.0
220
0.0
230
1.0
  2
SOLID
 70
     1
 71
     0
 91
        1
 92
        1
 93
        2
 72
     4
 94
        3
 73
     0
 74
     0
 95
       17
 96
       13
 40
0.0
 40
0.0
 40
0.0
 40
0.0
 40
0.3527780104152769
 40
0.3527780104152769
 40
0.3527780104152769
 40
0.7055560208305538
 40
0.7055560208305538
 40
0.7055560208305538
 40
1.058334031245831
 40
1.058334031245831
 40
1.058334031245831
 40
1.411112041661108
 40
1.411112041661108
 40
1.411112041661108
 40
1.411112041661108
 10
194.5784323501246
 20
0.7310497442394703
 10
194.5784323501246
 20
0.2625164491566807
 10
194.1877582643717
 20
-0.1160997944433089
 10
193.7068226173603
 20
-0.1160997944433089
 10
193.2258869703488
 20
-0.1160997944433089
 10
192.8345238650444
 20
0.2625164491566807
 10
192.8345238650444
 20
0.7310497442394703
 10
192.8345238650444
 20
1.198549509994871
 10
193.2258869703488
 20
1.577854773146453
 10
193.7068226173603
 20
1.577854773146453
 10
194.1877582643717
 20
1.577854773146453
 10
194.5784323501246
 20
1.198549509994871
 10
194.5784323501246
 20
0.7310497442394703
 72
     1
 10
194.5784323501246
 20
0.7310497442394703
 11
194.5784323501246
 21
0.7310497442394703
 97
        0
 75
     2
 76
     1
 98
        0
  0
ENDSEC
  0
SECTION
  2
OBJECTS
  0
DICTIONARY
  5
C
330
0
100
AcDbDictionary
281
     1
  3
ACAD_GROUP
350
D
  3
ACAD_LAYOUT
350
1A
  3
ACAD_MLINESTYLE
350
17
  3
ACAD_PLOTSETTINGS
350
19
  3
ACAD_PLOTSTYLENAME
350
E
  3
ACAD_TABLESTYLE
350
136
  3
ACAD_VISUALSTYLE
350
2A
  0
DICTIONARY
  5
D
102
{ACAD_REACTORS
330
C
102
}
330
C
100
AcDbDictionary
281
     1
  0
DICTIONARY
  5
1A
102
{ACAD_REACTORS
330
C
102
}
330
C
100
AcDbDictionary
281
     1
  3
Layout1
350
1E
  3
Layout2
350
26
  3
Model
350
22
  0
DICTIONARY
  5
17
102
{ACAD_REACTORS
330
C
102
}
330
C
100
AcDbDictionary
281
     1
  3
Standard
350
18
  0
DICTIONARY
  5
19
102
{ACAD_REACTORS
330
C
102
}
330
C
100
AcDbDictionary
281
     1
  0
ACDBDICTIONARYWDFLT
  5
E
102
{ACAD_REACTORS
330
C
102
}
330
C
100
AcDbDictionary
281
     1
  3
Normal
350
F
100
AcDbDictionaryWithDefault
340
F
  0
DICTIONARY
  5
136
102
{ACAD_REACTORS
330
C
102
}
330
C
100
AcDbDictionary
281
     1
  0
DICTIONARY
  5
2A
102
{ACAD_REACTORS
330
C
102
}
330
C
100
AcDbDictionary
281
     1
  3
2dWireframe
350
2F
  3
3D Hidden
350
31
  3
3dWireframe
350
30
  3
Basic
350
32
  3
Brighten
350
36
  3
ColorChange
350
3A
  3
Conceptual
350
34
  3
Dim
350
35
  3
Facepattern
350
39
  3
Flat
350
2B
  3
FlatWithEdges
350
2C
  3
Gouraud
350
2D
  3
GouraudWithEdges
350
2E
  3
Linepattern
350
38
  3
Realistic
350
33
  3
Thicken
350
37
  0
LAYOUT
  5
1E
102
{ACAD_REACTORS
330
1A
102
}
330
1A
100
AcDbPlotSettings
  1

  2
none_device
  4

  6

 40
0.0
 41
0.0
 42
0.0
 43
0.0
 44
0.0
 45
0.0
 46
0.0
 47
0.0
 48
0.0
 49
0.0
140
0.0
141
0.0
142
1.0
143
1.0
 70
   688
 72
     0
 73
     0
 74
     5
  7

 75
    16
147
1.0
148
0.0
149
0.0
100
AcDbLayout
  1
Layout1
 70
     1
 71
     1
 10
0.0
 20
0.0
 11
12.0
 21
9.0
 12
0.0
 22
0.0
 32
0.0
 14
1.000000000000000E+20
 24
1.000000000000000E+20
 34
1.000000000000000E+20
 15
-1.000000000000000E+20
 25
-1.000000000000000E+20
 35
-1.000000000000000E+20
146
0.0
 13
0.0
 23
0.0
 33
0.0
 16
1.0
 26
0.0
 36
0.0
 17
0.0
 27
1.0
 37
0.0
 76
     0
330
1B
  0
LAYOUT
  5
26
102
{ACAD_REACTORS
330
1A
102
}
330
1A
100
AcDbPlotSettings
  1

  2
none_device
  4

  6

 40
0.0
 41
0.0
 42
0.0
 43
0.0
 44
0.0
 45
0.0
 46
0.0
 47
0.0
 48
0.0
 49
0.0
140
0.0
141
0.0
142
1.0
143
1.0
 70
   688
 72
     0
 73
     0
 74
     5
  7

 75
    16
147
1.0
148
0.0
149
0.0
100
AcDbLayout
  1
Layout2
 70
     1
 71
     2
 10
0.0
 20
0.0
 11
0.0
 21
0.0
 12
0.0
 22
0.0
 32
0.0
 14
0.0
 24
0.0
 34
0.0
 15
0.0
 25
0.0
 35
0.0
146
0.0
 13
0.0
 23
0.0
 33
0.0
 16
1.0
 26
0.0
 36
0.0
 17
0.0
 27
1.0
 37
0.0
 76
     0
330
23
  0
LAYOUT
  5
22
102
{ACAD_REACTORS
330
1A
102
}
330
1A
100
AcDbPlotSettings
  1

  2
none_device
  4

  6

 40
0.0
 41
0.0
 42
0.0
 43
0.0
 44
0.0
 45
0.0
 46
0.0
 47
0.0
 48
0.0
 49
0.0
140
0.0
141
0.0
142
1.0
143
1.0
 70
  1712
 72
     0
 73
     0
 74
     0
  7

 75
     0
147
1.0
148
0.0
149
0.0
100
AcDbLayout
  1
Model
 70
     1
 71
     0
 10
0.0
 20
0.0
 11
12.0
 21
9.0
 12
0.0
 22
0.0
 32
0.0
 14
1.000000000000000E+20
 24
1.000000000000000E+20
 34
1.000000000000000E+20
 15
-1.000000000000000E+20
 25
-1.000000000000000E+20
 35
-1.000000000000000E+20
146
0.0
 13
0.0
 23
0.0
 33
0.0
 16
1.0
 26
0.0
 36
0.0
 17
0.0
 27
1.0
 37
0.0
 76
     0
330
1F
331
29
  0
MLINESTYLE
  5
18
102
{ACAD_REACTORS
330
17
102
}
330
17
100
AcDbMlineStyle
  2
Standard
 70
     0
  3

 62
   256
 51
90.0
 52
90.0
 71
     2
 49
0.5
 62
   256
  6
BYLAYER
 49
-0.5
 62
   256
  6
BYLAYER
  0
ACDBPLACEHOLDER
  5
F
102
{ACAD_REACTORS
330
E
102
}
330
E
  0
VISUALSTYLE
  5
2F
102
{ACAD_REACTORS
330
2A
102
}
330
2A
100
AcDbVisualStyle
  2
2dWireframe
 70
     4
 71
     0
 72
     2
 73
     0
 90
        0
 40
-0.6
 41
-30.0
 62
     5
 63
     7
 74
     1
 91
        4
 64
     7
 65
   257
 75
     1
175
     1
 42
1.0
 92
        0
 66
   257
 43
1.0
 76
     1
 77
     6
 78
     2
 67
     7
 79
     5
170
     0
171
     0
290
     0
174
     0
 93
        1
 44
0.0
173
     0
291
     0
 45
0.0
1001
ACAD
1000
AcDbSavedByObjectVersion
1070
     0
  0
VISUALSTYLE
  5
31
102
{ACAD_REACTORS
330
2A
102
}
330
2A
100
AcDbVisualStyle
  2
3D Hidden
 70
     6
 71
     1
 72
     2
 73
     2
 90
        0
 40
-0.6
 41
-30.0
 62
     5
 63
     7
 74
     2
 91
        2
 64
     7
 65
   257
 75
     2
175
     1
 42
40.0
 92
        0
 66
   257
 43
1.0
 76
     1
 77
     6
 78
     2
 67
     7
 79
     3
170
     0
171
     0
290
     0
174
     0
 93
        1
 44
0.0
173
     0
291
     0
 45
0.0
1001
ACAD
1000
AcDbSavedByObjectVersion
1070
     0
  0
VISUALSTYLE
  5
30
102
{ACAD_REACTORS
330
2A
102
}
330
2A
100
AcDbVisualStyle
  2
3dWireframe
 70
     5
 71
     0
 72
     2
 73
     0
 90
        0
 40
-0.6
 41
-30.0
 62
     5
 63
     7
 74
     1
 91
        4
 64
     7
 65
   257
 75
     1
175
     1
 42
1.0
 92
        0
 66
   257
 43
1.0
 76
     1
 77
     6
 78
     2
 67
     7
 79
     5
170
     0
171
     0
290
     0
174
     0
 93
        1
 44
0.0
173
     0
291
     0
 45
0.0
1001
ACAD
1000
AcDbSavedByObjectVersion
1070
     0
  0
VISUALSTYLE
  5
32
102
{ACAD_REACTORS
330
2A
102
}
330
2A
100
AcDbVisualStyle
  2
Basic
 70
     7
 71
     1
 72
     0
 73
     1
 90
        0
 40
-0.6
 41
-30.0
 62
     5
 63
     7
 74
     0
 91
        4
 64
     7
 65
   257
 75
     1
175
     1
 42
1.0
 92
        8
 66
     7
 43
1.0
 76
     1
 77
     6
 78
     2
 67
     7
 79
     5
170
     0
171
     0
290
     0
174
     0
 93
        1
 44
0.0
173
     0
291
     1
 45
0.0
1001
ACAD
1000
AcDbSavedByObjectVersion
1070
     0
  0
VISUALSTYLE
  5
36
102
{ACAD_REACTORS
330
2A
102
}
330
2A
100
AcDbVisualStyle
  2
Brighten
 70
    12
 71
     2
 72
     2
 73
     0
 90
        0
 40
-0.6
 41
-30.0
 62
     5
 63
     7
 74
     1
 91
        4
 64
     7
 65
   257
 75
     1
175
     1
 42
1.0
 92
        8
 66
     7
 43
1.0
 76
     1
 77
     6
 78
     2
 67
     7
 79
     5
170
     0
171
     0
290
     0
174
     0
 93
        1
 44
50.0
173
     0
291
     1
 45
0.0
1001
ACAD
1000
AcDbSavedByObjectVersion
1070
     0
  0
VISUALSTYLE
  5
3A
102
{ACAD_REACTORS
330
2A
102
}
330
2A
100
AcDbVisualStyle
  2
ColorChange
 70
    16
 71
     2
 72
     2
 73
     3
 90
        0
 40
-0.6
 41
-30.0
 62
     5
 63
     8
 74
     1
 91
        4
 64
     7
 65
   257
 75
     1
175
     1
 42
1.0
 92
        8
 66
     8
 43
1.0
 76
     1
 77
     6
 78
     2
 67
     7
 79
     5
170
     0
171
     0
290
     0
174
     0
 93
        1
 44
0.0
173
     0
291
     1
 45
0.0
1001
ACAD
1000
AcDbSavedByObjectVersion
1070
     0
  0
VISUALSTYLE
  5
34
102
{ACAD_REACTORS
330
2A
102
}
330
2A
100
AcDbVisualStyle
  2
Conceptual
 70
     9
 71
     3
 72
     2
 73
     0
 90
        0
 40
-0.6
 41
-30.0
 62
     5
 63
     7
 74
     2
 91
        2
 64
     7
 65
   257
 75
     1
175
     1
 42
40.0
 92
        8
 66
     7
 43
1.0
 76
     1
 77
     6
 78
     2
 67
     7
 79
     3
170
     0
171
     0
290
     0
174
     0
 93
        1
 44
0.0
173
     0
291
     0
 45
0.0
1001
ACAD
1000
AcDbSavedByObjectVersion
1070
     0
  0
VISUALSTYLE
  5
35
102
{ACAD_REACTORS
330
2A
102
}
330
2A
100
AcDbVisualStyle
  2
Dim
 70
    11
 71
     2
 72
     2
 73
     0
 90
        0
 40
-0.6
 41
-30.0
 62
     5
 63
     7
 74
     1
 91
        4
 64
     7
 65
   257
 75
     1
175
     1
 42
1.0
 92
        8
 66
     7
 43
1.0
 76
     1
 77
     6
 78
     2
 67
     7
 79
     5
170
     0
171
     0
290
     0
174
     0
 93
        1
 44
-50.0
173
     0
291
     1
 45
0.0
1001
ACAD
1000
AcDbSavedByObjectVersion
1070
     0
  0
VISUALSTYLE
  5
39
102
{ACAD_REACTORS
330
2A
102
}
330
2A
100
AcDbVisualStyle
  2
Facepattern
 70
    15
 71
     2
 72
     2
 73
     0
 90
        0
 40
-0.6
 41
-30.0
 62
     5
 63
     7
 74
     1
 91
        4
 64
     7
 65
   257
 75
     1
175
     1
 42
1.0
 92
        8
 66
     7
 43
1.0
 76
     1
 77
     6
 78
     2
 67
     7
 79
     5
170
     0
171
     0
290
     0
174
     0
 93
        1
 44
0.0
173
     0
291
     1
 45
0.0
1001
ACAD
1000
AcDbSavedByObjectVersion
1070
     0
  0
VISUALSTYLE
  5
2B
102
{ACAD_REACTORS
330
2A
102
}
330
2A
100
AcDbVisualStyle
  2
Flat
 70
     0
 71
     2
 72
     1
 73
     1
 90
        2
 40
-0.6
 41
30.0
 62
     5
 63
     7
 74
     0
 91
        4
 64
     7
 65
   257
 75
     1
175
     1
 42
1.0
 92
        8
 66
     7
 43
1.0
 76
     1
 77
     6
 78
     2
 67
     7
 79
     5
170
     0
171
     0
290
     0
174
     0
 93
       13
 44
0.0
173
     0
291
     1
 45
0.0
1001
ACAD
1000
AcDbSavedByObjectVersion
1070
     0
  0
VISUALSTYLE
  5
2C
102
{ACAD_REACTORS
330
2A
102
}
330
2A
100
AcDbVisualStyle
  2
FlatWithEdges
 70
     1
 71
     2
 72
     1
 73
     1
 90
        2
 40
-0.6
 41
30.0
 62
     5
 63
     7
 74
     1
 91
        4
 64
     7
 65
   257
 75
     1
175
     1
 42
1.0
 92
        0
 66
   257
 43
1.0
 76
     1
 77
     6
 78
     2
 67
     7
 79
     5
170
     0
171
     0
290
     0
174
     0
 93
       13
 44
0.0
173
     0
291
     1
 45
0.0
1001
ACAD
1000
AcDbSavedByObjectVersion
1070
     0
  0
VISUALSTYLE
  5
2D
102
{ACAD_REACTORS
330
2A
102
}
330
2A
100
AcDbVisualStyle
  2
Gouraud
 70
     2
 71
     2
 72
     2
 73
     1
 90
        2
 40
-0.6
 41
30.0
 62
     5
 63
     7
 74
     0
 91
        4
 64
     7
 65
   257
 75
     1
175
     1
 42
1.0
 92
        0
 66
     7
 43
1.0
 76
     1
 77
     6
 78
     2
 67
     7
 79
     5
170
     0
171
     0
290
     0
174
     0
 93
       13
 44
0.0
173
     0
291
     1
 45
0.0
1001
ACAD
1000
AcDbSavedByObjectVersion
1070
     0
  0
VISUALSTYLE
  5
2E
102
{ACAD_REACTORS
330
2A
102
}
330
2A
100
AcDbVisualStyle
  2
GouraudWithEdges
 70
     3
 71
     2
 72
     2
 73
     1
 90
        2
 40
-0.6
 41
30.0
 62
     5
 63
     7
 74
     1
 91
        4
 64
     7
 65
   257
 75
     1
175
     1
 42
1.0
 92
        0
 66
   257
 43
1.0
 76
     1
 77
     6
 78
     2
 67
     7
 79
     5
170
     0
171
     0
290
     0
174
     0
 93
       13
 44
0.0
173
     0
291
     1
 45
0.0
1001
ACAD
1000
AcDbSavedByObjectVersion
1070
     0
  0
VISUALSTYLE
  5
38
102
{ACAD_REACTORS
330
2A
102
}
330
2A
100
AcDbVisualStyle
  2
Linepattern
 70
    14
 71
     2
 72
     2
 73
     0
 90
        0
 40
-0.6
 41
-30.0
 62
     5
 63
     7
 74
     1
 91
        4
 64
     7
 65
   257
 75
     7
175
     7
 42
1.0
 92
        8
 66
     7
 43
1.0
 76
     1
 77
     6
 78
     2
 67
     7
 79
     5
170
     0
171
     0
290
     0
174
     0
 93
        1
 44
0.0
173
     0
291
     1
 45
0.0
1001
ACAD
1000
AcDbSavedByObjectVersion
1070
     0
  0
VISUALSTYLE
  5
33
102
{ACAD_REACTORS
330
2A
102
}
330
2A
100
AcDbVisualStyle
  2
Realistic
 70
     8
 71
     2
 72
     2
 73
     0
 90
        0
 40
-0.6
 41
-30.0
 62
     5
 63
     7
 74
     1
 91
        0
 64
     7
 65
   257
 75
     1
175
     1
 42
1.0
 92
        8
 66
     8
 43
1.0
 76
     1
 77
     6
 78
     2
 67
     7
 79
     5
170
     0
171
     0
290
     0
174
     0
 93
       13
 44
0.0
173
     0
291
     0
 45
0.0
1001
ACAD
1000
AcDbSavedByObjectVersion
1070
     0
  0
VISUALSTYLE
  5
37
102
{ACAD_REACTORS
330
2A
102
}
330
2A
100
AcDbVisualStyle
  2
Thicken
 70
    13
 71
     2
 72
     2
 73
     0
 90
        0
 40
-0.6
 41
-30.0
 62
     5
 63
     7
 74
     1
 91
        4
 64
     7
 65
   257
 75
     1
175
     1
 42
1.0
 92
       12
 66
     7
 43
1.0
 76
     1
 77
     6
 78
     2
 67
     7
 79
     5
170
     0
171
     0
290
     0
174
     0
 93
        1
 44
0.0
173
     0
291
     1
 45
0.0
1001
ACAD
1000
AcDbSavedByObjectVersion
1070
     0
  0
ENDSEC
  0
EOF
